Oops, an error
Loading. Please wait.

Dark Trail Tab

19,703 views 27 this week
7 commentsread comments
1 2 3 4 5
excellent!
x 10
Autoscroll
+/-
esc
set tempo
stop
Contributor
Difficulty
Tuning
intermediate
D A D G B E
WARNING: You are trying to view
                                    content from Ultimate-Guitar.com
                                    in an unauthorized application,
                                    which is prohibited.

                                    Please use an official Ultimate
                                    Guitar Tabs application for iPhone,
                                    iPad or Android to access legitimate
                                    chords, guitar, bass, and drum tabs
                                    from Ultimate-Guitar.com database.

                                    Type "ultimate guitar tabs" in Apple
                                    App Store's or Android Market's
                                    search to find the application.
Left Guitar (lead) first, Right Guitar (rhythm) second.  this a work in progress.

email: jjres.28remy28@gmail.com
aim: hottotjjres28



 The Dark Trail                                  


                                                                The Fall of Troy
Left Guitar - Lead Guitar
     |--3--|  |--3--|                                
     E  E  E  E  E  E      S S. S. E  E  E.  E.  E   
E||---------------------|---------------------------|
B||---------------------|---------------------------|
G||--4--4--4--4--4--4s--|--5-5-----5-----9---9------|
D||--6--6--6--6--6--6s--|--7-7-----7-----x---x------|
A||--5--5--5--5--5--5---|----0-----0--0--8---8---0--|
D||---------------------|---------------------------|
 
 
  E.  E.  E  E  S S  Q         S  S. S. E  E  E.  E.  E   
---------------------------|-----------------------------|
---------------------------|-----------------------------|
--5---5------9------12\----|------5-----5-----9---9------|
--7---7------x--x-x--x-----|--(7)-7-----7-----x---x------|
--0---0---0--8--x-x-12\----|---0--0-----0--0--8---8---0--|
---------------------------|-----------------------------|
 
 
                  |-3-| |-3-| |-3-|                                   
  S S S S S S S S S S S S S S S S S E      S  S. S. E  E  E.  E.  E   
--5-5-5-5-5-5-5-5-5-5-5----------------|-----------------------------|
------------------------5-5-5----------|-----------------------------|
------------------------------5-5-5----|------------------5---5------|
------------------------------------6--|------3-----3-----x---x------|
---------------------------------------|--(3)-3-----3--0--5---5---0--|
---------------------------------------|---3--3-----3----------------|
 
 
  E.  E.  E  E  S S Q         S  S. S. E  E  E.  E.  E   
--------------------------|-----------------------------|
--------------------------|-----------------------------|
-------------5------9\----|------------------5---5------|
--3---3------x--x-x-x-----|------3-----3-----x---x------|
--3---3---0--5--x-x-8\----|--(3)-3-----3--0--5---5---0--|
--3---3-------------------|---3--3-----3----------------|
 
 
                           |--3--|                                   
  E  S  S S S S S S  S S S S  S  S E      S  S. S. E  E  E.  E.  E   
--------------------------------------|-----------------------------|
---------------------------6p-5p-0----|-----------------------------|
--7--5h-7-7-7-7-7-5h-7-7-7---------5--|------5-----5-----9---9------|
--x-----------------------------------|--(7)-7-----7-----x---x------|
--7-----------------------------------|---0--0-----0--0--8---8---0--|
--------------------------------------|-----------------------------|
 
 
  E.  E.  E  E  S S  Q         S  S. S. E  E  E.  E.  E   
---------------------------|-----------------------------|
---------------------------|-----------------------------|
--5---5------9------12\----|------5-----5-----9---9------|
--7---7------x--x-x--x-----|--(7)-7-----7-----x---x------|
--0---0---0--8--x-x-12\----|---0--0-----0--0--8---8---0--|
---------------------------|-----------------------------|
 
 
                  |-3-| |-3-| |-3-|                                   
  S S S S S S S S S S S S S S S S S E      S  S. S. E  E  E.  E.  E   
--5-5-5-5-5-5-5-5-5-5-5----------------|-----------------------------|
------------------------5-5-5----------|-----------------------------|
------------------------------5-5-5----|------------------5---5------|
------------------------------------6--|------3-----3-----x---x------|
---------------------------------------|--(3)-3-----3--0--5---5---0--|
---------------------------------------|---3--3-----3----------------|
 
 
  E.  E.  E  E  S S Q         S  S. S. E  E  E.  E.  E   
--------------------------|-----------------------------|
--------------------------|-----------------------------|
-------------5------9\----|------------------5---5------|
--3---3------x--x-x-x-----|------3-----3-----x---x------|
--3---3---0--5--x-x-8\----|--(3)-3-----3--0--5---5---0--|
--3---3-------------------|---3--3-----3----------------|
 
 
                           |--3--|                                      
  E  S  S S S S S S  S S S S  S  S E     E.  E.  S S S  S S S S  S S S  
--------------------------------------|--------------------------------|
---------------------------6p-5p-0----|--------------------------------|
--7--5h-7-7-7-7-7-5h-7-7-7---------5--|--5---5---x-x-5p-2-x-x-0h-2-x-x-|
--x-----------------------------------|--7---7-------------------------|
--7-----------------------------------|--7---7-------------------------|
--------------------------------------|--------------------------------|
 
 
  E.  E.  S S S  S S S S  S S S    E.  E.  S S S  S S S S  S S S  
--------------------------------|--------------------------------|
--3---3-------3s-5-x-x-5s-3-x-x-|--1---1-------------------------|
--1---1-------------------------|--2---2---x-x-0h-2-x-x-2s-4-x-x-|
--2---2---x-x-------------------|--3---3-------------------------|
----------x-x-------------------|--------------------------------|
----------x-x-------------------|--------------------------------|
 
 
  E.  E.  E  T  S. E  S  S S  S    E.  E.  S S E  S S E  S S  
-------------------3------------|----------------------------|
--1---1---0--3s-5-----5p-3------|--------------5------3------|
--0---0---0----------------5p-0-|--5---5---x-x-5--x-x-5--x-x-|
--2---2-------------------------|--7---7---------------------|
--3---3-------------------------|--7---7---------------------|
--------------------------------|----------------------------|
 
 
                             |----3----|    |----3----|     
  E.  E.  S S E.  E.  S S    Q    Q    Q    Q    Q    Q     
--------------0---0-------|--------------------------------|
--3---3-------3---3-------|--1--------------3--------------|
--1---1---x-x-1---1---x-x-|-------0--------------0---------|
--2---2-------2---2---x-x-|--------------------------------|
--------------------------|------------3--------------5----|
--------------------------|--------------------------------|
 
 
  |----3----|                                                
  Q    Q    Q    E.  E.  E     E.  E.  S S S  S S S S S S S  
----------------------------|--------------8p-5-------------|
--5--------------0---L---L--|-----------------------8-------|
-------0--------------------|--5---5---x-x------x-x---5-x-x-|
----------------------------|--7---7------------------------|
------------7---------------|--7---7------------------------|
----------------------------|-------------------------------|
 
 
  E.  E.  S S S  S S S S  S S S    E.  E.  S S S  S S S S  S S S  
--------------------------------|--------------------------------|
--3---3-------3s-5-x-x-5s-3-x-x-|--1---1-------------------------|
--1---1-------------------------|--2---2---x-x-0h-2-x-x-2s-4-x-x-|
--2---2---x-x-------------------|--3---3-------------------------|
----------x-x-------------------|--------------------------------|
----------x-x-------------------|--------------------------------|
 
 
  E.  E.  E  T  S. E  S  S S  S    E.  E.  S S E  S S E  S S  
-------------------3------------|----------------------------|
--1---1---0--3s-5-----5p-3------|--------------5------3------|
--0---0---0----------------5p-0-|--5---5---x-x-5--x-x-5--x-x-|
--2---2-------------------------|--7---7---------------------|
--3---3-------------------------|--7---7---------------------|
--------------------------------|----------------------------|
 
 
                             |----3----|    |----3----|     
  E.  E.  S S E.  E.  S S    Q    Q    Q    Q    Q    Q     
--------------0---0-------|--------------------------------|
--3---3-------3---3-------|--1--------------3--------------|
--1---1---x-x-1---1---x-x-|-------0--------------0---------|
--2---2-------2---2---x-x-|--------------------------------|
--------------------------|------------3--------------5----|
--------------------------|--------------------------------|
 
 
  |----3----|    |--3--|                                       
  Q    Q    Q    E  E  E  E  E      S  S. S. E  E  E.  E.  E   
--------------------------------|-----------------------------|
--5-----------------------------|-----------------------------|
-------0---------4--4--4--4-----|------5-----5-----9---9------|
-----------------6--6--6--6-----|--(7)-7-----7-----x---x------|
------------7----5--5--5--5-----|---0--0-----0--0--8---8---0--|
--------------------------------|-----------------------------|
 
 
  E.  E.  E  E  S S  Q         S  S. S. E  E  E.  E.  E   
---------------------------|-----------------------------|
---------------------------|-----------------------------|
--5---5------9------12\----|------5-----5-----9---9------|
--7---7------x--x-x--x-----|--(7)-7-----7-----x---x------|
--0---0---0--8--x-x-12\----|---0--0-----0--0--8---8---0--|
---------------------------|-----------------------------|
 
 
                  |-3-| |-3-| |-3-|                                   
  S S S S S S S S S S S S S S S S S E      S  S. S. E  E  E.  E.  E   
--5-5-5-5-5-5-5-5-5-5-5----------------|-----------------------------|
------------------------5-5-5----------|-----------------------------|
------------------------------5-5-5----|------------------5---5------|
------------------------------------6--|------3-----3-----x---x------|
---------------------------------------|--(3)-3-----3--0--5---5---0--|
---------------------------------------|---3--3-----3----------------|
 
 
  E.  E.  E  E  S S Q         S  S. S. E  E  E.  E.  E   
--------------------------|-----------------------------|
--------------------------|-----------------------------|
-------------5------9\----|------------------5---5------|
--3---3------x--x-x-x-----|------3-----3-----x---x------|
--3---3---0--5--x-x-8\----|--(3)-3-----3--0--5---5---0--|
--3---3-------------------|---3--3-----3----------------|
 
 
                           |--3--|                                   
  E  S  S S S S S S  S S S S  S  S E      S  S. S. E  E  E.  E.  E   
--------------------------------------|-----------------------------|
---------------------------6p-5p-0----|-----------------------------|
--7--5h-7-7-7-7-7-5h-7-7-7---------5--|------5-----5-----9---9------|
--x-----------------------------------|--(7)-7-----7-----x---x------|
--7-----------------------------------|---0--0-----0--0--8---8---0--|
--------------------------------------|-----------------------------|
 
 
  E.  E.  E  E  S S  Q         S  S. S. E  E  E.  E.  E   
---------------------------|-----------------------------|
---------------------------|-----------------------------|
--5---5------9------12\----|------5-----5-----9---9------|
--7---7------x--x-x--x-----|--(7)-7-----7-----x---x------|
--0---0---0--8--x-x-12\----|---0--0-----0--0--8---8---0--|
---------------------------|-----------------------------|
 
 
                  |-3-| |-3-| |-3-|                                   
  S S S S S S S S S S S S S S S S S E      S  S. S. E  E  E.  E.  E   
--5-5-5-5-5-5-5-5-5-5-5----------------|-----------------------------|
------------------------5-5-5----------|-----------------------------|
------------------------------5-5-5----|------------------5---5------|
------------------------------------6--|------3-----3-----x---x------|
---------------------------------------|--(3)-3-----3--0--5---5---0--|
---------------------------------------|---3--3-----3----------------|
 
 
  E.  E.  E  E  S S Q         S  S. S. E  E  E.  E.  E   
--------------------------|-----------------------------|
--------------------------|-----------------------------|
-------------5------9\----|------------------5---5------|
--3---3------x--x-x-x-----|------3-----3-----x---x------|
--3---3---0--5--x-x-8\----|--(3)-3-----3--0--5---5---0--|
--3---3-------------------|---3--3-----3----------------|
 
 
                           |--3--|                                      
  E  S  S S S S S S  S S S S  S  S E     E.  E.  S S S  S S S S  S S S  
--------------------------------------|--------------------------------|
---------------------------6p-5p-0----|--------------------------------|
--7--5h-7-7-7-7-7-5h-7-7-7---------5--|--5---5---x-x-5p-2-x-x-0h-2-x-x-|
--x-----------------------------------|--7---7-------------------------|
--7-----------------------------------|--7---7-------------------------|
--------------------------------------|--------------------------------|
 
 
  E.  E.  S S S  S S S S  S S S    E.  E.  S S S  S S S S  S S S  
--------------------------------|--------------------------------|
--3---3-------3s-5-x-x-5s-3-x-x-|--1---1-------------------------|
--1---1-------------------------|--2---2---x-x-0h-2-x-x-2s-4-x-x-|
--2---2---x-x-------------------|--3---3-------------------------|
----------x-x-------------------|--------------------------------|
----------x-x-------------------|--------------------------------|
 
 
  E.  E.  E  T  S. E  S  S S  S    E.  E.  S S E  S S E  S S  
-------------------3--5p-3------|----------------------------|
--1---1---0--3s-5----------5p-0-|--------------5------3------|
--0---0---0---------------------|--5---5---x-x-5--x-x-5--x-x-|
--2---2-------------------------|--7---7---------------------|
--3---3-------------------------|--7---7---------------------|
--------------------------------|----------------------------|
 
 
                             |----3----|    |----3----|     
  E.  E.  S S E.  E.  S S    Q    Q    Q    Q    Q    Q     
--------------0---0-------|--------------------------------|
--3---3-------3---3-------|--1--------------3--------------|
--1---1---x-x-1---1---x-x-|-------0--------------0---------|
--2---2-------2---2---x-x-|--------------------------------|
--------------------------|------------3--------------5----|
--------------------------|--------------------------------|
 
 
  |----3----|                                                            
  Q    Q    Q    Q    S. T  T  T  T  T    E.  E.  S S S  S S S S  S S S  
-------------------------3h-5p-3h-5p-3-|--------------8p-5--------------|
--5--------------0----L----------------|-----------------------8p-5-----|
-------0-------------------------------|--5---5---x-x------x-x------x-x-|
---------------------------------------|--7---7-------------------------|
------------7--------------------------|--7---7-------------------------|
---------------------------------------|--------------------------------|
 
 
  E.  E.  S S S  S S S S  S S S    E.  E.  S S S  S S S S  S S S  
--------------------------------|--------------------------------|
--3---3-------3s-5-x-x-5s-3-x-x-|--1---1-------------------------|
--1---1-------------------------|--2---2---x-x-0h-2-x-x-2s-4-x-x-|
--2---2---x-x-------------------|--3---3-------------------------|
----------x-x-------------------|--------------------------------|
----------x-x-------------------|--------------------------------|
 
 
  E.  E.  E  T  S. E  S  S S  S    E.  E.  S S E  S S E  S S  
-------------------3--5p-3------|----------------------------|
--1---1---0--3s-5----------5p-0-|--------------5------3------|
--0---0---0---------------------|--5---5---x-x-5--x-x-5--x-x-|
--2---2-------------------------|--7---7---------------------|
--3---3-------------------------|--7---7---------------------|
--------------------------------|----------------------------|
 
 
                             |----3----|    |----3----|     
  E.  E.  S S E.  E.  S S    Q    Q    Q    Q    Q    Q     
--------------0---0-------|--------------------------------|
--3---3-------3---3-------|--1--------------3--------------|
--1---1---x-x-1---1---x-x-|-------0--------------0---------|
--2---2-------2---2---x-x-|--------------------------------|
--------------------------|------------3--------------5----|
--------------------------|--------------------------------|
 
 
  |----3----|               
  Q    Q    Q    E  Q.      
---------------------------|
--5--------------0---------|
-------0---------0---------|
---------------------------|
------------7--------------|
---------------------------|
 
 
           |--3--|                     |--3--|           
     S  S  S  S  S  S  S  S  S   S  S  S  S  S  S S S S  
|---14p-0-------------------12s-14p-0-------------------|
|---------15-------------15-----------15----------------|
|*-----------16-------16-----------------16-------------|
|*--------------17-14-----------------------17-14-------|
|-------------------------------------------------------|
|-------------------------------------------------------|
 
 
         |--3--|                     |--3--|           
   S  S  S  S  S  S  S  S  S   S  S  S  S  S  S S S S  
--14p-0-------------------12s-14p-0-------------------|
--------15-------------15-----------15----------------|
-----------16-------16-----------------16-------------|
--------------17-14-----------------------17-14-------|
------------------------------------------------------|
------------------------------------------------------|
 
 
         |--3--|  |--3--|           |--3-|          
   S  S  S  S  S  S  S  S  S S S  S S S  S S S S S  
--12p-0----------10------------7p-0----------------|
--------10-12-13----13-12-10--------8--------------|
--------------------------------------9------------|
----------------------------------------10-7-------|
---------------------------------------------------|
---------------------------------------------------|
 
 
  S S S E  S E   S S S E  S E      S S  E  S  S S  E  S  S S  E  S S     
--------5--------------0-------|------------------------15---15--------||
----6------6---------1----1----|--13---13----13---13----13---13--------||
------7------7\----2-----------|--16---16----16---16----16---16------*-||
--8--------------3----------0--|-------------------------------------*-||
-------------------------------|---------------------------------------||
-------------------------------|---------------------------------------||
 
 
   S S  E  S  S S  E  S  S S  E  S  S    S  E  S  S S  E   
------------------------15---15-------|-------------------|
--13---13----13---13----13---13----13-|----13----13---13--|
--16---16----16---16----16---16----16-|----16----16---16--|
--------------------------------------|-------------------|
--------------------------------------|-------------------|
--------------------------------------|-------------------|
 
 
                              PM  PM     PM PM PM PM PM PM PM  
                                            |--3--|  |--3--|   
  S  Q     Q     Q        E.  E.  E   E  E  S  S  S  S  S  S   
----15----15----15----|---------------------------------------|
----13----13----13----|--16----------16-----------------------|
----16----16----16----|--19----------19-----------------------|
----------------------|-------0---0------0--------------------|
----------------------|-------0---0------0--0--0--0--0--0--0--|
----------------------|-------0---0------0--0--0--0--0--0--0--|
 
 
  PM       PM PM PM PM                     PM  PM     PM PM PM PM PM PM PM  
           |--3--|  |--3--|                              |--3--|  |--3--|   
  E.   E.  S  S  S  Q     H            E.  E.  E   E  E  S  S  S  S  S  S   
-----------------------------------|---------------------------------------|
------16-----------------16--------|--16----------16-----------------------|
------19-----------------19--------|--19----------19-----------------------|
-----------------------------------|-------0---0------0--------------------|
--0--------0--0--0--0--------------|-------0---0------0--0--0--0--0--0--0--|
--0--------0--0--0--0--------------|-------0---0------0--0--0--0--0--0--0--|
 
 
  PM       PM PM PM PM                  W         PM  PM  PM PM  
           |--3--|  |--3--|                                      
  E.   E.  S  S  S  Q     H             H         E.  E.  S  S   
------------------------------------|---------------------------|
------16-----------------16\--------|---------------------------|
------19-----------------19\--------|---------------------------|
------------------------------------|---------------------------|
--0--------0--0--0--0---------------|-------------3---6---x--x--|
--0--------0--0--0--0---------------|--15\--------3---6---x--x--|
 
 
  PM  PM      PM PM PM PM PM PM PM PM     W         PM  PM  PM PM  
              |--3--|     |--3--|                                  
  E.  E.   E  S  S  S  E  S  S  S  E      H         E.  E.  S  S   
--------------------------------------|---------------------------|
--------------------------------------|---------------------------|
--------------------------------------|---------------------------|
--------------------------------------|---------------------------|
--2---5----0--8--8--8--8--8--8--8--8--|-------------3---6---x--x--|
--2---5p---0--8--8--8--8--8--8--8--8--|--15\--------3---6---x--x--|
 
 
  PM  PM      PM PM PM PM PM PM PM PM         PM  PM     PM PM PM PM PM PM PM  
              |--3--|     |--3--|                           |--3--|  |--3--|   
  E.  E.   E  S  S  S  E  S  S  S  E      E.  E.  E   E  E  S  S  S  S  S  S   
--------------------------------------|---------------------------------------|
--------------------------------------|--16----------16-----------------------|
--------------------------------------|--19----------19-----------------------|
--------------------------------------|-------0---0------0--------------------|
--2---5----0--8--8--8--8--8--8--8--8--|-------0---0------0--0--0--0--0--0--0--|
--2---5p---0--8--8--8--8--8--8--8--8--|-------0---0------0--0--0--0--0--0--0--|
 
 
  PM       PM PM PM PM                     PM  PM     PM PM PM PM PM PM PM  
           |--3--|  |--3--|                              |--3--|  |--3--|   
  E.   E.  S  S  S  Q     H            E.  E.  E   E  E  S  S  S  S  S  S   
-----------------------------------|---------------------------------------|
------16-----------------16--------|--16----------16-----------------------|
------19-----------------19--------|--19----------19-----------------------|
-----------------------------------|-------0---0------0--------------------|
--0--------0--0--0--0--------------|-------0---0------0--0--0--0--0--0--0--|
--0--------0--0--0--0--------------|-------0---0------0--0--0--0--0--0--0--|
 
 
  PM       PM PM PM PM                  W         PM  PM  PM PM  
           |--3--|  |--3--|                                      
  E.   E.  S  S  S  Q     H             H         E.  E.  S  S   
------------------------------------|---------------------------|
------16-----------------16\--------|---------------------------|
------19-----------------19\--------|---------------------------|
------------------------------------|---------------------------|
--0--------0--0--0--0---------------|-------------3---6---x--x--|
--0--------0--0--0--0---------------|--15\--------3---6---x--x--|
 
 
  PM  PM      PM PM PM PM PM PM PM PM     W         PM  PM  PM PM  
              |--3--|     |--3--|                                  
  E.  E.   E  S  S  S  E  S  S  S  E      H         E.  E.  S  S   
--------------------------------------|---------------------------|
--------------------------------------|---------------------------|
--------------------------------------|---------------------------|
--------------------------------------|---------------------------|
--2---5----0--8--8--8--8--8--8--8--8--|-------------3---6---x--x--|
--2---5p---0--8--8--8--8--8--8--8--8--|--15\--------3---6---x--x--|
 
 
  PM  PM      PM PM PM PM PM                                     
              |--3--|                                            
  E.  E.   E  S  S  S  E  E  E     E.  E.  S S S  S S S S S S S  
--------------------------------|--------------8p-5-------------|
--------------------------------|-----------------------8-------|
--------------------------------|--5---5---x-x------x-x---5-x-x-|
--------------------------------|--7---7------------------------|
--2---5----0--8--8--8--8--8-----|--7---7------------------------|
--2---5p---0--8--8--8--8--8-----|-------------------------------|
 
 
  E.  E.  S S S  S S S S  S S S    E.  E.  S S S  S S S S  S S S  
--------------------------------|--------------------------------|
--3---3-------3s-5-5-5-5s-3-x-x-|--1---1-------------------------|
--1---1-------------------------|--2---2---x-x-0h-2-2-2-2s-4-x-x-|
--2---2---x-x-------------------|--3---3-------------------------|
----------x-x-------------------|--------------------------------|
----------x-x-------------------|--------------------------------|
 
 
              |--3--|      |--3-|                                     
  E.  E.  E   E  E  E   S  T T  T  S  S    E.  E.  S S E  S S E  S S  
-----------------3---------3------------|----------------------------|
--1---1---0--/5-----3h--5p-L-3h-5p-3p-0-|--------------5------3------|
--0---0---0-----------------------------|--5---5---x-x-5--x-x-5--x-x-|
--2---2---------------------------------|--7---7---------------------|
--3---3---------------------------------|--7---7---------------------|
----------------------------------------|----------------------------|
 
 
                             |----3----|    |----3----|     
  E.  E.  S S E.  E.  S S    Q    Q    Q    Q    Q    Q     
--------------0---0-------|--------------------------------|
--3---3-------3---3-------|--1--------------3--------------|
--1---1---x-x-1---1---x-x-|-------0--------------0---------|
--2---2-------2---2---x-x-|--------------------------------|
--------------------------|------------3--------------5----|
--------------------------|--------------------------------|
 
 
  |----3----|                                           
  Q    Q    Q    E  T  T  T  T  T  T  T  T  T  T  T  T  
--------------------3h-5p-3h-5p-3h-5p-3h-5p-3h-5p-3h-5-|
--5--------------0-------------------------------------|
-------0-----------------------------------------------|
-------------------------------------------------------|
------------7------------------------------------------|
-------------------------------------------------------|
 
 
  E.  E.  S S S  S S S S  S S S    E.  E.  S S S  S S S S  S S S  
--------------------------------|--------------------------------|
--------------------------------|--3---3-------3s-5-5-5-5s-3-x-x-|
--5---5---x-x-5p-2-x-x-5p-2-x-x-|--1---1-------------------------|
--7---7-------------------------|--2---2---x-x-------------------|
--7---7-------------------------|----------x-x-------------------|
--------------------------------|----------x-x-------------------|
 
 
                                                                  |--3--|  
  E.  E.  S S S  S S S S  S S S    E.  E.  E  T  S. E  T  T  T  T S  S  S  
--------------------------------|-------------------3--3h-5p-3p-0---------|
--1---1-------------------------|--1---1---0--3s-5----------------5p-3p-0-|
--2---2---x-x-0h-2-2-2-2s-4-x-x-|--0---0---0------------------------------|
--3---3-------------------------|--2---2----------------------------------|
--------------------------------|--3---3----------------------------------|
--------------------------------|-----------------------------------------|
 
 
  E.  E.  S S E  S S E  S S    E.  E.  S S E.  E.  S S  
----------------------------|--------------0---0-------|
--------------5------3------|--3---3-------3---3-------|
--5---5---x-x-5--x-x-5--x-x-|--1---1---x-x-1---1---x-x-|
--7---7---------------------|--2---2-------2---2---x-x-|
--7---7---------------------|--------------------------|
----------------------------|--------------------------|
 
 
  |----3----|    |----3----|       |----3----|               
  Q    Q    Q    Q    Q    Q       Q    Q    Q    E  Q.      
--------------------------------|---------------------------|
--1--------------3--------------|--5--------------0--L------|
-------0--------------0---------|-------0-------------------|
--------------------------------|---------------------------|
------------3--------------5----|------------7--------------|
--------------------------------|---------------------------|
 
 
   PM  PM  PM  PM  PM  PM    PM PM PM PM PM PM    PM PM PM PM PM PM  
   E   E   E   E   E   E     E  E  E  E  E  E     E  E  E  E  E  E   
--------------------------|--------------------|--------------------|
--------------------------|--------------------|--------------------|
--------------------------|--------------------|--------------------|
--11--11--11--11--11--11--|--7--7--7--7--7--7--|--------------------|
---9---9---9---9---9---9--|--5--5--5--5--5--5--|--5--5--5--4--4--4--|
---9---9---9---9---9---9--|--5--5--5--5--5--5--|--0--0--0--0--0--0--|
 
 
  PM PM PM PM PM PM     PM  PM  PM  PM  PM  PM    PM PM PM PM PM PM  
  E  E  E  E  E  E      E   E   E   E   E   E     E  E  E  E  E  E   
--------------------|--------------------------|--------------------|
--------------------|--------------------------|--------------------|
--------------------|--------------------------|--------------------|
--5--5--5--4--4--4--|--11--11--11--11--11--11--|--7--7--7--7--7--7--|
--2--2--2--2--2--2--|---9---9---9---9---9---9--|--5--5--5--5--5--5--|
--2--2--2--2--2--2--|---9---9---9---9---9---9--|--5--5--5--5--5--5--|
 
 
  PM PM PM PM PM PM    PM PM PM PM PM PM    PM PM  PM PM          
  E  E  E  E  E  E     E  E  E  E  E  E     E  E   E  E   E   E   
--------------------|--------------------|-----------------------|
--------------------|--------------------|-----------------------|
--------------------|--------------------|-----------------------|
--------------------|--5--5--5--4--4--4--|--------11-----12p--0--|
--5--5--5--4--4--4--|--2--2--2--2--2--2--|-----9------9----------|
--0--0--0--0--0--0--|--2--2--2--2--2--2--|--9--------------------|
 
 
  PM PM           SH       PM PM PM PM PM PM    PM PM PM PM          
  E  E  E   E     Q        E  E  E  E  E  E     E  E  E  E    Q      
------------------------|--------------------|----------------------|
------------------------|--------------------|----------------------|
------------------------|--------------------|----------------------|
--------7s--9-----------|--------4-----2-----|--------5-----<>4~----|
-----5---------<>10~----|-----0-----0-----0--|-----2-----2----------|
--5---------------------|--0-----------------|--2-------------------|
 
 
  PM PM  PM PM  PM  PM    PM PM PM  PM    SH       PM PM PM PM PM PM  
  E  E   E  E   E   E     E  E  E   E     Q        E  E  E  E  E  E   
-----------------------|------------------------|--------------------|
-----------------------|------------------------|--------------------|
-----------------------|------------------------|--------------------|
--------11-----12p--0--|--------7s--9-----------|--------4-----2-----|
-----9------9----------|-----5---------<>10~----|-----0-----0-----0--|
--9--------------------|--5---------------------|--0-----------------|
 
 
  PM PM PM PM   SH       PM PM  PM PM  PM  PM    PM PM PM  PM  PM  PM  
  E  E  E  E    Q        E  E   E  E   E   E     E  E  E   E   E   E   
----------------------|-----------------------|-----------------------|
----------------------|-----------------------|-----------------------|
----------------------|-----------------------|-----------------------|
--------5-----<>4~----|--------11--L--12p--0--|--------7h--9----------|
-----2-----2----------|------------9---L------|-----5---------10p--0--|
--2-------------------|--9--9-----------------|--5--------------------|
 
 
  PM PM    PM           PM PM PM PM           PM  PM  PM  PM  PM  PM  
  E  E  E  E  E   E     E  E  E  E  Q         E   E   E   E   E   E   
---------------------|--------------------|--------------------------|
---------------------|--------------------|--------------------------|
---------------------|--------------------|--------------------------|
--------4-----2p--0--|--------5-----4/----|--11--11--11--11--11--11--|
-----0-----0---------|-----2-----2--------|---9---9---9---9---9---9--|
--0------------------|--2-----------------|---9---9---9---9---9---9--|
 
 
  PM PM PM PM PM PM    PM PM PM PM PM PM PM PM    PM PM PM PM PM PM PM     
  E  E  E  E  E  E     S  S  E  E  S  S  E  E     S  S  E  E  S  S  Q      
--------------------|--------------------------|--------------------------|
--------------------|--------------------------|--------------------------|
--------------------|--------------------------|--------------------------|
--7--7--7--7--7--7--|--------------------------|--5--5--5--5--4--4--4/----|
--5--5--5--5--5--5--|--5--5--5--5--4--4--4--4--|--2--2--2--2--2--2--2-----|
--5--5--5--5--5--5--|--0--0--0--0--0--0--0--0--|--2--2--2--2--2--2--2-----|
 
 
   PM  PM  PM  PM  PM          PM PM PM PM PM         PM PM PM PM PM PM  
   E   E   E   E   E    E      E  E  E  E  E   E      E  E  E  E  E  E   
----------------------------|----------------------|--------------------|
----------------------------|----------------------|--------------------|
----------------------------|----------------------|--------------------|
--11--11--11--11--12\--(0)--|--7--7--7--9--5--(0)--|--4--4--x-----------|
---9---9---9---9---9\--(0)--|--5--5--5--5--5--(0)--|--0--0--0--4--4--x--|
---9---9---9---9---9\-------|--5--5--5--5--5-------|--0--0--0--0--0--0--|
 
 
  PM PM PM PM PM PM     PM  PM  PM  PM  PM          PM PM PM PM PM       
  E  E  E  E  E  E      E   E   E   E   E    E      E  E  E  E  E   E    
--------------------|----------------------------|----------------------|
--------------------|----------------------------|----------------------|
--------------------|----------------------------|----------------------|
--5--5--5--4--4--4--|--11--11--11--11--12\--(0)--|--7--7--7--9--5--(0)--|
--2--2--2--2--2--2--|---9---9---9---9---9\--(0)--|--5--5--5--5--5--(0)--|
--2--2--2--2--2--2--|---9---9---9---9---9\-------|--5--5--5--5--5-------|
 
 
  PM PM PM PM PM PM    PM PM PM PM PM PM                          
  E  E  E  E  E  E     E  E  E  E  E  E     E  E   E  E   E   E   
--------------------|--------------------|-----------------------|
--------------------|--------------------|-----------------------|
--------------------|--------------------|-----------------------|
--4--4--x-----------|--5--5--5--4--4--4--|--------11-----12p--0--|
--0--0--0--4--4--x--|--2--2--2--2--2--2--|-----9------9----------|
--0--0--0--0--0--0--|--2--2--2--2--2--2--|--9--------------------|
 
 
  E  E  E   E   E   E     E  E  E   E  E   E     E  E  E   E  E   E   
-----------------------|----------------------|----------------------|
-----------------------|----------------------|----------------------|
-----------------------|----------------------|----------------------|
--------7s--9----------|--------4p--0--2p--0--|--------5p--0--4p--0--|
-----5---------10p--0--|-----0----------------|-----2----------------|
--5--------------------|--0-------------------|--2-------------------|
 
 
  E  E   E  E   E   E     E  E  E  E  E   E     E  E  E  E  E  E   
-----------------------|---------------------|--------------------|
-----------------------|---------------------|--------------------|
-----------------------|---------------------|--------------------|
--------11-----12p--0--|--------7--9--5p--0--|--------4-----2-----|
-----9------9----------|-----5---------------|-----0-----0--------|
--9--------------------|--5------------------|--0--------------0--|
 
 
                SH                                                        
  E  E  E  E    Q        E   E   E   E   E    E      E  E  E  E  E   E    
---------------------|----------------------------|----------------------|
---------------------|----------------------------|----------------------|
---------------------|----------------------------|----------------------|
--------5-----<>4----|--11--11--11--11--12\--(0)--|--7--7--7--9--5--(0)--|
-----2-----2---------|---9---9---9---9---9\--(0)--|--5--5--5--5--5--(0)--|
--2------------------|---9---9---9---9---9\-------|--5--5--5--5--5-------|
 
 
  PM PM PM    PM PM PM       PM PM PM    PM PM PM     
  S  S  E  E  S  S  E  E     S  S  E  E  S  S  E  E   
--------------------------|--------------------------|
--------------------------|--------------------------|
--------------------------|--------------------------|
-----------4-----------2--|-----------5-----------4--|
--0--0--0--0--0--0--0--0--|--2--2--2--2--2--2--2--2--|
--0--0--0--0--0--0--0--0--|--2--2--2--2--2--2--2--2--|
 
 
                                                      PM PM PM    PM PM PM     
   E   E   E   E   E    E      E  E  E  E  E   E      S  S  E  E  S  S  E  E   
----------------------------|----------------------|--------------------------|
----------------------------|----------------------|--------------------------|
----------------------------|----------------------|--------------------------|
--11--11--11--11--12\--(0)--|--7--7--7--9--5--(0)--|-----------4-----------2--|
---9---9---9---9---9\--(0)--|--5--5--5--5--5--(0)--|--0--0--0--0--0--0--0--0--|
---9---9---9---9---9\-------|--5--5--5--5--5-------|--0--0--0--0--0--0--0--0--|
 
 
  PM PM    PM PM                                                         
  E  E  E  E  E  E      E   E   E   E   E    E      E  E  E  E  E   E    
--------------------|----------------------------|----------------------|
--------------------|----------------------------|----------------------|
--------------------|----------------------------|----------------------|
--------5--------4--|--11--11--11--11--12\--(0)--|--7--7--7--9--5--(0)--|
--2--2--2--2--2--2--|---9---9---9---9---9\--(0)--|--5--5--5--5--5--(0)--|
--2--2--2--2--2--2--|---9---9---9---9---9\-------|--5--5--5--5--5-------|
 
 
  PM PM PM    PM PM PM       PM PM PM    PM PM PM     
  S  S  E  E  S  S  E  E     S  S  E  E  S  S  E  E   
--------------------------|--------------------------|
--------------------------|--------------------------|
--------------------------|--------------------------|
-----------4-----------2--|-----------5-----------4--|
--0--0--0--0--0--0--0--0--|--2--2--2--2--2--2--2--2--|
--0--0--0--0--0--0--0--0--|--2--2--2--2--2--2--2--2--|
 
 
   E   E   E   E   E    E      E  E  E  E  E   E      E  E  E  E  E  E   
----------------------------|----------------------|--------------------|
----------------------------|----------------------|--------------------|
----------------------------|----------------------|--------------------|
--11--11--11--11--12\--(0)--|--7--7--7--9--5--(0)--|--4--4--4--2--2--2--|
---9---9---9---9---9\--(0)--|--5--5--5--5--5--(0)--|--0--0--0--0--0--0--|
---9---9---9---9---9\-------|--5--5--5--5--5-------|--0--0--0--0--0--0--|
 
 
  E  E  E  E  E  E      H.              H.              H.            
--------------------|----------------|---------------|---------------|
--------------------|----------------|---------------|---------------|
--------------------|--11------------|--7------------|--7------------|
--5--5--5--4--4--4--|---9------------|--5------------|--0------------|
--2--2--2--2--2--2--|---9------------|--5------------|--0------------|
--2--2--2--2--2--2--|---9------------|--5------------|--0------------|
 
 
  H.              H.              H.              H.             
---------------|---------------|---------------|---------------||
---------------|---------------|---------------|---------------||
--L------------|--L------------|--L------------|--L------------||
--L------------|--L------------|--L------------|--L------------||
--L------------|--L------------|--L------------|--L------------||
--L------------|--L------------|--L------------|--L------------||

                                The Dark Trail                                  


                                                                The Fall of Troy
Right Guitar - Rythm Guitar
     |--3--|  |--3--|                                
     E  E  E  E  E  E      S S. S. E  E  E.  E.  E   
E||---------------------|---------------------------|
B||---------------------|---------------------------|
G||--4--4--4--4--4--4s--|--5-5-----5-----9---9------|
D||--6--6--6--6--6--6s--|--7-7-----7-----x---x------|
A||--5--5--5--5--5--5---|----0-----0--0--8---8---0--|
D||---------------------|---------------------------|
 
 
  E.  E.  E  E  S S  Q         S  S. S. E  E  E.  E.  E   
---------------------------|-----------------------------|
---------------------------|-----------------------------|
--5---5------9------12\----|------5-----5-----9---9------|
--7---7------x--x-x--x-----|--(7)-7-----7-----x---x------|
--0---0---0--8--x-x-12\----|---0--0-----0--0--8---8---0--|
---------------------------|-----------------------------|
 
 
  E  E   H.               S  S. S. E  E  E.  E.  E     E.  E.  E  E  S S Q      
----------------------|-----------------------------|--0---0-------------------|
----------------------|-----------------------------|--x---x-------------------|
--5--L\---------------|------2-----2-----5---5------|--2---2------5------9\----|
--7--L\---------------|--(3)-3-----3-----x---x------|--3---3------x--x-x-x-----|
--0--L\---------------|---3--3-----3--0--5---5---0--|--3---3---0--5--x-x-8\----|
----------------------|-----------------------------|--------------------------|
 
 
   S  S. S. E  E  E.  E.  E     E  E  H.            
-----------------------------|---------------------|
-----------------------------|---------------------|
------2-----2-----5---5------|--7------------------|
--(3)-3-----3-----x---x------|--x------------------|
---3--3-----3--0--5---5---0--|--7------------------|
-----------------------------|---------------------|
 
 
   S  S. S. E  E  E.  E.  E     E.  E.  E  E  S S  Q      
-----------------------------|---------------------------|
-----------------------------|---------------------------|
------5-----5-----9---9------|--5---5------9------12\----|
--(7)-7-----7-----x---x------|--7---7------x--x-x--x-----|
---0--0-----0--0--8---8---0--|--0---0---0--8--x-x-12\----|
-----------------------------|---------------------------|
 
 
   S  S. S. E  E  E.  E.  E     E  E   H.            
-----------------------------|----------------------|
-----------------------------|----------------------|
------5-----5-----9---9------|--5--L\---------------|
--(7)-7-----7-----x---x------|--7--L\---------------|
---0--0-----0--0--8---8---0--|--0--L\---------------|
-----------------------------|----------------------|
 
 
   S  S. S. E  E  E.  E.  E     E.  E.  E  E  S S Q      
-----------------------------|--0---0-------------------|
-----------------------------|--x---x-------------------|
------2-----2-----5---5------|--2---2------5------9\----|
--(3)-3-----3-----x---x------|--3---3------x--x-x-x-----|
---3--3-----3--0--5---5---0--|--3---3---0--5--x-x-8\----|
-----------------------------|--------------------------|
 
 
                                            NH        
   S  S. S. E  E  E.  E.  E     E  Q.       H         
-----------------------------|------------<>5--------|
-----------------------------|------------<>5--------|
------2-----2-----5---5------|--7--------------------|
--(3)-3-----3-----x---x------|--x--------------------|
---3--3-----3--0--5---5---0--|--7--------------------|
-----------------------------|-----------------------|
 
 
  E.  E.  S S S  S S S S  S S S    E.  E.  S S S  S S S S  S S S  
--------------------------------|--------------------------------|
--------------------------------|--3---3-------3s-5-x-x-5s-3-x-x-|
--5---5---x-x-5p-2-x-x-0h-2-x-x-|--1---1-------------------------|
--7---7-------------------------|--2---2---x-x-------------------|
--7---7-------------------------|----------x-x-------------------|
--------------------------------|----------x-x-------------------|
 
 
  E.  E.  S S S  S S S S  S S S    E.  E.  Q    Q.      
--------------------------------|----------------------|
--1---1-------------------------|--1---1---------------|
--2---2---x-x-0h-2-x-x-2s-4-x-x-|--0---0---------------|
--3---3-------------------------|--2---2---------------|
--------------------------------|--3---3---------------|
--------------------------------|----------------------|
 
 
  E.  E.  S S E  S S E  S S    E.  E.  S S E.  E.  S S  
----------------------------|--------------0---0-------|
--------------5------3------|--3---3-------3---3-------|
--5---5---x-x-5--x-x-5--x-x-|--1---1---x-x-1---1---x-x-|
--7---7---------------------|--2---2-------2---2---x-x-|
--7---7---------------------|--------------------------|
----------------------------|--------------------------|
 
 
  |----3----|    |----3----|       |----3----|                
  Q    Q    Q    Q    Q    Q       Q    Q    Q    E.  E.  E   
--------------------------------|----------------------------|
--1--------------3--------------|--5--------------0---L---L--|
-------0--------------0---------|-------0--------------------|
--------------------------------|----------------------------|
------------3--------------5----|------------7---------------|
--------------------------------|----------------------------|
 
 
  E.  E.  S S S  S S S S  S S S    E.  E.  S S S  S S S S  S S S  
--------------8p-0-----0h-8-----|--------------------------------|
--------------------------------|--3---3-------3s-5-x-x-5s-3-x-x-|
--5---5---x-x------x-x------x-x-|--1---1-------------------------|
--7---7-------------------------|--2---2---x-x-------------------|
--7---7-------------------------|----------x-x-------------------|
--------------------------------|----------x-x-------------------|
 
 
  E.  E.  S S S  S S S S  S S S    E.  E.  Q    Q.      
--------------------------------|----------------------|
--1---1-------------------------|--1---1---------------|
--2---2---x-x-0h-2-x-x-2s-4-x-x-|--0---0---------------|
--3---3-------------------------|--2---2---------------|
--------------------------------|--3---3---------------|
--------------------------------|----------------------|
 
 
  E.  E.  S S E  S S E  S S    E.  E.  S S E.  E.  S S  
----------------------------|--------------0---0-------|
--------------5------3------|--3---3-------3---3-------|
--5---5---x-x-5--x-x-5--x-x-|--1---1---x-x-1---1---x-x-|
--7---7---------------------|--2---2-------2---2---x-x-|
--7---7---------------------|--------------------------|
----------------------------|--------------------------|
 
 
  |----3----|    |----3----|       |----3----|    |--3--|         
  Q    Q    Q    Q    Q    Q       Q    Q    Q    E  E  E  E  E   
--------------------------------|--------------------------------|
--1--------------3--------------|--5-----------------------------|
-------0--------------0---------|-------0---------4--4--4--4-----|
--------------------------------|-----------------6--6--6--6-----|
------------3--------------5----|------------7----5--5--5--5-----|
--------------------------------|--------------------------------|
 
 
   S  S. S. E  E  E.  E.  E     E.  E.  E  E  S S  Q      
-----------------------------|---------------------------|
-----------------------------|---------------------------|
------5-----5-----9---9------|--5---5------9------12\----|
--(7)-7-----7-----x---x------|--7---7------x--x-x--x-----|
---0--0-----0--0--8---8---0--|--0---0---0--8--x-x-12\----|
-----------------------------|---------------------------|
 
 
   S  S. S. E  E  E.  E.  E     E  E   H.            
-----------------------------|----------------------|
-----------------------------|----------------------|
------5-----5-----9---9------|--5--L\---------------|
--(7)-7-----7-----x---x------|--7--L\---------------|
---0--0-----0--0--8---8---0--|--0--L\---------------|
-----------------------------|----------------------|
 
 
   S  S. S. E  E  E.  E.  E     E.  E.  E  E  S S Q      
-----------------------------|--0---0-------------------|
-----------------------------|--x---x-------------------|
------2-----2-----5---5------|--2---2------5------9\----|
--(3)-3-----3-----x---x------|--3---3------x--x-x-x-----|
---3--3-----3--0--5---5---0--|--3---3---0--5--x-x-8\----|
-----------------------------|--------------------------|
 
 
   S  S. S. E  E  E.  E.  E     E  E  H.            
-----------------------------|---------------------|
-----------------------------|---------------------|
------2-----2-----5---5------|--7------------------|
--(3)-3-----3-----x---x------|--x------------------|
---3--3-----3--0--5---5---0--|--7------------------|
-----------------------------|---------------------|
 
 
   S  S. S. E  E  E.  E.  E     E.  E.  E  E  S S  Q      
-----------------------------|---------------------------|
-----------------------------|---------------------------|
------5-----5-----9---9------|--5---5------9------12\----|
--(7)-7-----7-----x---x------|--7---7------x--x-x--x-----|
---0--0-----0--0--8---8---0--|--0---0---0--8--x-x-12\----|
-----------------------------|---------------------------|
 
 
   S  S. S. E  E  E.  E.  E     E  E   H.            
-----------------------------|----------------------|
-----------------------------|----------------------|
------5-----5-----9---9------|--5--L\---------------|
--(7)-7-----7-----x---x------|--7--L\---------------|
---0--0-----0--0--8---8---0--|--0--L\---------------|
-----------------------------|----------------------|
 
 
   S  S. S. E  E  E.  E.  E     E.  E.  E  E  S S Q      
-----------------------------|--0---0-------------------|
-----------------------------|--x---x-------------------|
------2-----2-----5---5------|--2---2------5------9\----|
--(3)-3-----3-----x---x------|--3---3------x--x-x-x-----|
---3--3-----3--0--5---5---0--|--3---3---0--5--x-x-8\----|
-----------------------------|--------------------------|
 
 
                                            NH        
   S  S. S. E  E  E.  E.  E     E  Q.       H         
-----------------------------|-----------------------|
-----------------------------|------------<>5--------|
------2-----2-----5---5------|--7--------------------|
--(3)-3-----3-----x---x------|--x--------------------|
---3--3-----3--0--5---5---0--|--7--------------------|
-----------------------------|-----------------------|
 
 
  E.  E.  S S S  S S S S S S S    E.  E.  S S S  S S S S  S S S  
--------------8p-0-------------|--------------------------------|
-----------------------8-------|--3---3-------3s-5-x-x-5s-3-x-x-|
--5---5---x-x------x-x---5-x-x-|--1---1-------------------------|
--7---7------------------------|--2---2---x-x-------------------|
--7---7------------------------|----------x-x-------------------|
-------------------------------|----------x-x-------------------|
 
 
  E.  E.  S S S  S S S S  S S S    E.  E.  Q    Q.      
--------------------------------|----------------------|
--1---1-------------------------|--1---1---------------|
--2---2---x-x-0h-2-x-x-2s-4-x-x-|--0---0---------------|
--3---3-------------------------|--2---2---------------|
--------------------------------|--3---3---------------|
--------------------------------|----------------------|
 
 
  E.  E.  S S E  S S E  S S    E.  E.  S S E.  E.  S S  
----------------------------|--------------0---0-------|
--------------5------3------|--3---3-------3---3-------|
--5---5---x-x-5--x-x-5--x-x-|--1---1---x-x-1---1---x-x-|
--7---7---------------------|--2---2-------2---2---x-x-|
--7---7---------------------|--------------------------|
----------------------------|--------------------------|
 
 
  |----3----|    |----3----|       |----3----|                           
  Q    Q    Q    Q    Q    Q       Q    Q    Q    Q    S. T  T  T  T  T  
--------------------------------|-------------------------3h-5p-3h-5p-3-|
--1--------------3--------------|--5------------------------------------|
-------0--------------0---------|-------0-------------------------------|
--------------------------------|---------------------------------------|
------------3--------------5----|------------7--------------------------|
--------------------------------|---------------------------------------|
 
 
  E.  E.  S S S  S S S S  S S S    E.  E.  S S S  S S S S  S S S  
--------------8p-5--------------|--------------------------------|
-----------------------8p-5-----|--3---3-------3s-5-x-x-5s-3-x-x-|
--5---5---x-x------x-x------x-x-|--1---1-------------------------|
--7---7-------------------------|--2---2---x-x-------------------|
--7---7-------------------------|----------x-x-------------------|
--------------------------------|----------x-x-------------------|
 
 
  E.  E.  S S S  S S S S  S S S    E.  E.  Q    Q.      
--------------------------------|----------------------|
--1---1-------------------------|--1---1---------------|
--2---2---x-x-0h-2-x-x-2s-4-x-x-|--0---0---------------|
--3---3-------------------------|--2---2---------------|
--------------------------------|--3---3---------------|
--------------------------------|----------------------|
 
 
  E.  E.  S S E  S S E  S S    E.  E.  S S E.  E.  S S  
----------------------------|--------------0---0-------|
--------------5------3------|--3---3-------3---3-------|
--5---5---x-x-5--x-x-5--x-x-|--1---1---x-x-1---1---x-x-|
--7---7---------------------|--2---2-------2---2---x-x-|
--7---7---------------------|--------------------------|
----------------------------|--------------------------|
 
 
  |----3----|    |----3----|       |----3----|               
  Q    Q    Q    Q    Q    Q       Q    Q    Q    E  Q.      
--------------------------------|---------------------------|
--1--------------3--------------|--5--------------0---------|
-------0--------------0---------|-------0---------0---------|
--------------------------------|---------------------------|
------------3--------------5----|------------7--------------|
--------------------------------|---------------------------|
 
 
           |--3--|                     |--3--|           
     S  S  S  S  S  S  S  S  S   S  S  S  S  S  S S S S  
|---14p-0-------------------12s-14p-0-------------------|
|---------15-------------15-----------15----------------|
|*-----------16-------16-----------------16-------------|
|*--------------17-14-----------------------17-14-------|
|-------------------------------------------------------|
|-------------------------------------------------------|
 
 
         |--3--|                     |--3--|           
   S  S  S  S  S  S  S  S  S   S  S  S  S  S  S S S S  
--14p-0-------------------12s-14p-0-------------------|
--------15-------------15-----------15----------------|
-----------16-------16-----------------16-------------|
--------------17-14-----------------------17-14-------|
------------------------------------------------------|
------------------------------------------------------|
 
 
         |--3--|  |--3--|           |--3-|          
   S  S  S  S  S  S  S  S  S S S  S S S  S S S S S  
--12p-0----------10------------7p-0----------------|
--------10-12-13----13-12-10--------8--------------|
--------------------------------------9------------|
----------------------------------------10-7-------|
---------------------------------------------------|
---------------------------------------------------|
 
 
  S S S E  S E   S S S E  S E      S S  E  S  S S  E  S  S S  E  S S     
--------5--------------0-------|------------------------15---15--------||
----6------6---------1----1----|--13---13----13---13----13---13--------||
------7------7\----2--------0--|--16---16----16---16----16---16------*-||
--8--------------3-------------|-------------------------------------*-||
-------------------------------|---------------------------------------||
-------------------------------|---------------------------------------||
 
 
   S S  E  S  S S  E  S  S S  E  S  S    S  E  S  S S  E   
------------------------15---15-------|-------------------|
--13---13----13---13----13---13----13-|----13----13---13--|
--16---16----16---16----16---16----16-|----16----16---16--|
--------------------------------------|-------------------|
--------------------------------------|-------------------|
--------------------------------------|-------------------|
 
 
                              PM  PM     PM PM PM PM PM PM PM  
                                            |--3--|  |--3--|   
  S  Q     Q     Q        E.  E.  E   E  E  S  S  S  S  S  S   
----15----15----15----|---------------------------------------|
----13----13----13----|--16----------16-----------------------|
----16----16----16----|--19----------19-----------------------|
----------------------|-------0---0------0--------------------|
----------------------|-------0---0------0--0--0--0--0--0--0--|
----------------------|-------0---0------0--0--0--0--0--0--0--|
 
 
  PM       PM PM PM PM                     PM  PM     PM PM PM PM PM PM PM  
           |--3--|  |--3--|                              |--3--|  |--3--|   
  E.   E.  S  S  S  Q     H            E.  E.  E   E  E  S  S  S  S  S  S   
-----------------------------------|---------------------------------------|
------16-----------------16--------|--16----------16-----------------------|
------19-----------------19--------|--19----------19-----------------------|
-----------------------------------|-------0---0------0--------------------|
--0--------0--0--0--0--------------|-------0---0------0--0--0--0--0--0--0--|
--0--------0--0--0--0--------------|-------0---0------0--0--0--0--0--0--0--|
 
 
  PM       PM PM PM PM                  W         PM  PM  PM PM  
           |--3--|  |--3--|                                      
  E.   E.  S  S  S  Q     H             H         E.  E.  S  S   
------------------------------------|---------------------------|
------16-----------------16\--------|---------------------------|
------19-----------------19\--------|---------------------------|
------------------------------------|---------------------------|
--0--------0--0--0--0---------------|-------------3---6---x--x--|
--0--------0--0--0--0---------------|--15\--------3---6---x--x--|
 
 
  PM  PM      PM PM PM PM PM PM PM PM     W         PM  PM  PM PM  
              |--3--|     |--3--|                                  
  E.  E.   E  S  S  S  E  S  S  S  E      H         E.  E.  S  S   
--------------------------------------|---------------------------|
--------------------------------------|---------------------------|
--------------------------------------|---------------------------|
--------------------------------------|---------------------------|
--2---5----0--8--8--8--8--8--8--8--8--|-------------3---6---x--x--|
--2---5p---0--8--8--8--8--8--8--8--8--|--15\--------3---6---x--x--|
 
 
  PM  PM      PM PM PM PM PM PM PM PM         PM  PM     PM PM PM PM PM PM PM  
              |--3--|     |--3--|                           |--3--|  |--3--|   
  E.  E.   E  S  S  S  E  S  S  S  E      E.  E.  E   E  E  S  S  S  S  S  S   
--------------------------------------|---------------------------------------|
--------------------------------------|--16----------16-----------------------|
--------------------------------------|--------------19-----------------------|
--------------------------------------|-------0---0------0--------------------|
--2---5----0--8--8--8--8--8--8--8--8--|-------0---0------0--0--0--0--0--0--0--|
--2---5p---0--8--8--8--8--8--8--8--8--|-------0---0------0--0--0--0--0--0--0--|
 
 
  PM       PM PM PM PM                     PM  PM     PM PM PM PM PM PM PM  
           |--3--|  |--3--|                              |--3--|  |--3--|   
  E.   E.  S  S  S  Q     H            E.  E.  E   E  E  S  S  S  S  S  S   
-----------------------------------|---------------------------------------|
------16-----------------16--------|--16----------16-----------------------|
------19-----------------19--------|--19----------19-----------------------|
-----------------------------------|-------0---0------0--------------------|
--0--------0--0--0--0--------------|-------0---0------0--0--0--0--0--0--0--|
--0--------0--0--0--0--------------|-------0---0------0--0--0--0--0--0--0--|
 
 
  PM       PM PM PM PM                  W         PM  PM  PM PM  
           |--3--|  |--3--|                                      
  E.   E.  S  S  S  Q     H             H         E.  E.  S  S   
------------------------------------|---------------------------|
------16-----------------16\--------|---------------------------|
------19-----------------19\--------|---------------------------|
------------------------------------|---------------------------|
--0--------0--0--0--0---------------|-------------3---6---x--x--|
--0--------0--0--0--0---------------|--15\--------3---6---x--x--|
 
 
  PM  PM      PM PM PM PM PM PM PM PM     W         PM  PM  PM PM  
              |--3--|     |--3--|                                  
  E.  E.   E  S  S  S  E  S  S  S  E      H         E.  E.  S  S   
--------------------------------------|---------------------------|
--------------------------------------|---------------------------|
--------------------------------------|---------------------------|
--------------------------------------|---------------------------|
--2---5----0--8--8--8--8--8--8--8--8--|-------------3---6---x--x--|
--2---5p---0--8--8--8--8--8--8--8--8--|--15\--------3---6---x--x--|
 
 
  PM  PM      PM PM PM PM PM                                     
              |--3--|                                            
  E.  E.   E  S  S  S  E  E  E     E.  E.  S S S  S S S S S S S  
--------------------------------|--------------8p-0-------------|
--------------------------------|-----------------------8-------|
--------------------------------|--5---5---x-x------x-x---5-x-x-|
--------------------------------|--7---7------------------------|
--2---5----0--8--8--8--8--8-----|--7---7------------------------|
--2---5p---0--8--8--8--8--8-----|-------------------------------|
 
 
  E.  E.  S S S  S S S S  S S S    E.  E.  S S S  S S S S  S S S  
--------------------------------|--------------------------------|
--3---3-------3s-5-5-5-5s-3-x-x-|--1---1-------------------------|
--1---1-------------------------|--2---2---x-x-0h-2-2-2-2s-4-x-x-|
--2---2---x-x-------------------|--3---3-------------------------|
----------x-x-------------------|--------------------------------|
----------x-x-------------------|--------------------------------|
 
 
  E.  E.  Q    Q.        E.  E.  S S E  S S E  S S    E.  E.  S S E.  E.  S S  
----------------------|----------------------------|--------------0---0-------|
--1---1---------------|--------------5------3------|--3---3-------3---3-------|
--0---0---------------|--5---5---x-x-5--x-x-5--x-x-|--1---1---x-x-1---1---x-x-|
--2---2---------------|--7---7---------------------|--2---2-------2---2---x-x-|
--3---3---------------|--7---7---------------------|--------------------------|
----------------------|----------------------------|--------------------------|
 
 
                                                  Effects.  
  |----3----|    |----3----|       |----3----|              
  Q    Q    Q    Q    Q    Q       Q    Q    Q    H         
--------------------------------|--------------------------|
--1--------------3--------------|--5-----------------------|
-------0--------------0---------|-------0------------------|
--------------------------------|--------------------------|
------------3--------------5----|------------7-------------|
--------------------------------|--------------------------|
 
 
  E.  E.  S S S  S S S S  S S S    E.  E.  S S S  S S S S  S S S  
--------------------------------|--------------------------------|
--------------------------------|--3---3-------3s-5-5-5-5s-3-x-x-|
--5---5---x-x-5p-2-x-x-5p-2-x-x-|--1---1-------------------------|
--7---7-------------------------|--2---2---x-x-------------------|
--7---7-------------------------|----------x-x-------------------|
--------------------------------|----------x-x-------------------|
 
 
                                                                |--3--|  
  E.  E.  S S S  S S S S  S S S    E.  E.  E  T  S. E  T  S  T  S  S  S  
--------------------------------|-------------------3--3s-5p-3h---------|
--1---1-------------------------|--1---1---0--3s-5--------------5p-3p-0-|
--2---2---x-x-0h-2-2-2-2s-4-x-x-|--0---0---0----------------------------|
--3---3-------------------------|--2---2--------------------------------|
--------------------------------|--3---3--------------------------------|
--------------------------------|---------------------------------------|
 
 
  E.  E.  S S E  S S E  S S    E.  E.  S S E.  E.  S S  
----------------------------|--------------0---0-------|
--------------5------3------|--3---3-------3---3-------|
--5---5---x-x-5--x-x-5--x-x-|--1---1---x-x-1---1---x-x-|
--7---7---------------------|--2---2-------2---2---x-x-|
--7---7---------------------|--------------------------|
----------------------------|--------------------------|
 
 
  |----3----|    |----3----|       |----3----|                               
  Q    Q    Q    Q    Q    Q       Q    Q    Q    E  Q.        H.            
--------------------------------|---------------------------|---------------|
--1--------------3--------------|--5--------------0--L------|---------------|
-------0--------------0---------|-------0-------------------|---------------|
--------------------------------|---------------------------|---------------|
------------3--------------5----|------------7--------------|---------------|
--------------------------------|---------------------------|---------------|
 
 
  H.              H.              H.              H.              H.            
---------------|---------------|---------------|---------------|---------------|
---------------|---------------|---------------|---------------|---------------|
---------------|---------------|---------------|---------------|---------------|
---------------|---------------|---------------|---------------|---------------|
---------------|---------------|---------------|---------------|---------------|
---------------|---------------|---------------|---------------|---------------|
 
 
                                  PM PM  PM PM           PM PM           SH     
  H.              H.              E  E   E  E   Q        E  E  E   E     Q      
---------------|---------------|----------------------|------------------------|
---------------|---------------|----------------------|------------------------|
---------------|---------------|----------------------|------------------------|
---------------|---------------|--------11-----12\----|--------7s--9-----------|
---------------|---------------|-----9------9---------|-----5---------<>10~----|
---------------|---------------|--9-------------------|--5---------------------|
 
 
  PM PM PM PM PM PM    PM PM    PM            PM PM  PM PM  PM  PM  
  E  E  E  E  E  E     E  E  E  E    Q        E  E   E  E   E   E   
--------------------|----------------------|-----------------------|
--------------------|----------------------|-----------------------|
--------------------|----------------------|-----------------------|
--------4-----2-----|--------5-----<>4~----|--------11-----12p--0--|
-----0-----0-----0--|-----2-----2----------|-----9------9----------|
--0-----------------|--2-------------------|--9--------------------|
 
 
  PM PM PM  PM           PM PM    PM PM        PM PM PM PM   SH     
  E  E  E   E   Q        E  E  E  E  E   E     E  E  E  E    Q      
----------------------|---------------------|----------------------|
----------------------|---------------------|----------------------|
----------------------|---------------------|----------------------|
--------7s--9---------|--------4-----2p--0--|--------5-----<>4~----|
-----5---------10~----|-----0-----0---------|-----2-----2----------|
--5-------------------|--0------------------|--2-------------------|
 
 
  PM PM  PM PM  PM  PM    PM PM PM  PM  PM  PM    PM PM    PM         
  E  E   E  E   E   E     E  E  E   E   E   E     E  E  E  E  E   E   
-----------------------|-----------------------|---------------------|
-----------------------|-----------------------|---------------------|
-----------------------|-----------------------|---------------------|
--------11--L--12p--0--|--------7h--9----------|--------4-----2p--0--|
------------9---L------|-----5---------10p--0--|-----0-----0---------|
--9--9-----------------|--5--------------------|--0------------------|
 
 
  PM PM PM PM           PM  PM  PM  PM  PM  PM    PM PM PM PM PM PM  
  E  E  E  E  Q         E   E   E   E   E   E     E  E  E  E  E  E   
--------------------|--------------------------|--------------------|
--------------------|--------------------------|--------------------|
--------------------|--------------------------|--------------------|
--------5-----4/----|--11--11--11--11--11--11--|--7--7--7--7--7--7--|
-----2-----2--------|---9---9---9---9---9---9--|--5--5--5--5--5--5--|
--2-----------------|---9---9---9---9---9---9--|--5--5--5--5--5--5--|
 
 
  PM PM PM PM PM PM PM PM    PM PM PM PM PM PM PM     
  S  S  E  E  S  S  E  E     S  S  E  E  S  S  Q      
--------------------------|--------------------------|
--------------------------|--------------------------|
--------------------------|--------------------------|
--------------------------|--5--5--5--5--4--4--4/----|
--5--5--5--5--4--4--4--4--|--2--2--2--2--2--2--2-----|
--0--0--0--0--0--0--0--0--|--2--2--2--2--2--2--2-----|
 
 
   PM  PM  PM  PM  PM          PM PM PM PM PM         PM PM PM PM PM PM  
   E   E   E   E   E    E      E  E  E  E  E   E      E  E  E  E  E  E   
----------------------------|----------------------|--------------------|
----------------------------|----------------------|--------------------|
----------------------------|----------------------|--------------------|
--11--11--11--11--12\--(0)--|--7--7--7--9--5--(0)--|--4--4--x-----------|
---9---9---9---9---9\--(0)--|--5--5--5--5--5--(0)--|--0--0--0--4--4--x--|
---9---9---9---9---9\-------|--5--5--5--5--5-------|--0--0--0--0--0--0--|
 
 
  PM PM PM PM PM PM     PM  PM  PM  PM  PM          PM PM PM PM PM       
  E  E  E  E  E  E      E   E   E   E   E    E      E  E  E  E  E   E    
--------------------|----------------------------|----------------------|
--------------------|----------------------------|----------------------|
--------------------|----------------------------|----------------------|
--5--5--5--4--4--4--|--11--11--11--11--12\--(0)--|--7--7--7--9--5--(0)--|
--2--2--2--2--2--2--|---9---9---9---9---9\--(0)--|--5--5--5--5--5--(0)--|
--2--2--2--2--2--2--|---9---9---9---9---9\-------|--5--5--5--5--5-------|
 
 
  PM PM PM PM PM PM    PM PM PM PM PM PM                          
  E  E  E  E  E  E     E  E  E  E  E  E     E  E   E  E   E   E   
--------------------|--------------------|-----------------------|
--------------------|--------------------|-----------------------|
--------------------|--------------------|-----------------------|
--4--4--x--2--2--x--|--5--5--5--4--4--4--|--------11-----12p--0--|
--0--0--0--0--0--0--|--2--2--2--2--2--2--|-----9------9----------|
--0--0--0--0--0--0--|--2--2--2--2--2--2--|--9--------------------|
 
 
  E  E  E   E   E   E     E  E  E   E  E   E     E  E  E   E  Q      
-----------------------|----------------------|---------------------|
-----------------------|----------------------|---------------------|
-----------------------|----------------------|---------------------|
--------7s--9----------|--------4p--0--2p--0--|--------5p--0--4/----|
-----5---------10p--0--|-----0----------------|-----2---------------|
--5--------------------|--0-------------------|--2------------------|
 
 
  E    E   E   E   E   E     E  E  E   E  E   E     E  E  E   E  E   E   
--------------------------|----------------------|----------------------|
--------------------------|----------------------|----------------------|
--------------------------|----------------------|----------------------|
----------11p--9--12p--0--|--------7s--9--5p--0--|--------4p--0--2p--0--|
--------------------------|-----5----------------|-----0----------------|
--9--<>9------------------|--5-------------------|--0-------------------|
 
 
  E  E  E   E  Q         E   E   E   E   E    E      E  E  E  E  E   E    
---------------------|----------------------------|----------------------|
---------------------|----------------------------|----------------------|
---------------------|----------------------------|----------------------|
--------5p--0--4/----|--11--11--11--11--12\--(0)--|--7--7--7--9--5--(0)--|
-----2---------------|---9---9---9---9---9\--(0)--|--5--5--5--5--5--(0)--|
--2------------------|---9---9---9---9---9\-------|--5--5--5--5--5-------|
 
 
  PM PM PM    PM PM PM       PM PM PM    PM PM                                  
  S  S  E  E  S  S  E  E     S  S  E  E  E  E  E      E   E   E   E   E    E    
--------------------------|-----------------------|----------------------------|
--------------------------|-----------------------|----------------------------|
--------------------------|-----------------------|----------------------------|
-----------4-----------2--|-----------5--------4--|--11--11--11--11--12\--(0)--|
--0--0--0--0--0--0--0--0--|--2--2--2--2--2--2--2--|---9---9---9---9---9\--(0)--|
--0--0--0--0--0--0--0--0--|--2--2--2--2--2--2--2--|---9---9---9---9---9\-------|
 
 
                         PM PM PM    PM PM PM       PM PM    PM PM     
  E  E  E  E  E   E      S  S  E  E  S  S  E  E     E  E  E  E  E  E   
----------------------|--------------------------|--------------------|
----------------------|--------------------------|--------------------|
----------------------|--------------------------|--------------------|
--7--7--7--9--5--(0)--|-----------4-----------2--|--------5--------4--|
--5--5--5--5--5--(0)--|--0--0--0--0--0--0--0--0--|--2--2--2--2--2--2--|
--5--5--5--5--5-------|--0--0--0--0--0--0--0--0--|--2--2--2--2--2--2--|
 
 
                                                      PM PM PM    PM PM PM     
   E   E   E   E   E    E      E  E  E  E  E   E      S  S  E  E  S  S  E  E   
----------------------------|----------------------|--------------------------|
----------------------------|----------------------|--------------------------|
----------------------------|----------------------|--------------------------|
--11--11--11--11--12\--(0)--|--7--7--7--9--5--(0)--|-----------4-----------2--|
---9---9---9---9---9\--(0)--|--5--5--5--5--5--(0)--|--0--0--0--0--0--0--0--0--|
---9---9---9---9---9\-------|--5--5--5--5--5-------|--0--0--0--0--0--0--0--0--|
 
 
  PM PM PM    PM PM PM                                                          
  S  S  E  E  S  S  E  E       E   E   E   E   E    E      E  E  E  E  E   E    
---------------------------|----------------------------|----------------------|
---------------------------|----------------------------|----------------------|
---------------------------|----------------------------|----------------------|
-----------5-----------4/--|--11--11--11--11--12\--(0)--|--7--7--7--9--5--(0)--|
--2--2--2--2--2--2--2--2---|---9---9---9---9---9\--(0)--|--5--5--5--5--5--(0)--|
--2--2--2--2--2--2--2--2---|---9---9---9---9---9\-------|--5--5--5--5--5-------|
 
 
  E  E  E  E  E  E     E  E  E  E  E  E      H.              Q.       Q.       
--------------------|--------------------|----------------|-------------------|
--------------------|--------------------|----------------|-------------------|
--------------------|--------------------|--11------------|--7----------------|
--4--4--4--2--2--2--|--5--5--5--4--4--4--|---9------------|--5----------------|
--0--0--0--0--0--0--|--2--2--2--2--2--2--|---9------------|--5----------------|
--0--0--0--0--0--0--|--2--2--2--2--2--2--|---9------------|--5------/16\------|
 
 
  H.              H.              H.              H.            
---------------|---------------|---------------|---------------|
---------------|---------------|---------------|---------------|
---------------|---------------|---------------|---------------|
--0------------|--L------------|--L------------|--L------------|
--0------------|--L------------|--L------------|--L------------|
--0------------|--L------------|--L------------|--L------------|
 
 
  H.             
---------------||
---------------||
---------------||
--L------------||
--L------------||
--L------------||
 
 
 
 
Duration Legend
---------------
W - whole
H - half
Q - quarter
E - 8th
S - 16th
T - 32nd
X - 64th
. - note dotted
|-n-|  - n-tuplets
 
 
Tablature Legend
----------------
L - tied note
x - dead note
g - grace note
(n) - ghost note
> - accentuded note
NH - natural harmonic
AH - artificial harmonic
TH - tapped harmonic
SH - semi harmonic
PH - pitch harmonic
h - hammer on
p - pull off
b - bend
br - bendRelease
pb - preBend
pbr - preBendRelease
brb - bendReleaseBend
\n/ - tremolo bar dip
\n - tremolo bar dive
-/n - tremolo bar Release up
/n\ - tremolo bar inverted dip
/n - tremolo bar return
-\n - tremolo bar Release down
S - shift slide
s - legato slide
/ -  slide into from below or out of upwards
\ -  slide into from above or out of downwards
~ - vibrato
W - wide vibrato
tr - tril'
TP - tremolo picking
T - tapping
S - slap
P - pop
< - fade in
^ - brush up
v - brush down
comments
print report bad tab
7 comments total. Showing first comments.
0 reply
jaak3l wrote on June 26 2008, 08:53 am

k

0 reply
jaak3l wrote on June 26 2008, 08:53 am

k

0 reply
andrew12398 wrote on July 8 2008, 07:28 pm

You didn't even get the 1st chord right, sorry, didn't like it :(

I want to post or [tab]
guest
You may want to rate the tab now too:
select rating
Please do not post tabs as comments. Select "correction" instead!