Oops, an error
Loading. Please wait.

Excreations Tab

47,194 views 15 this week
20 commentsread comments
1 2 3 4 5
excellent!
x 18
add to favorites launch autoscroll
font size
0
reset
Autoscroll
+/-
esc
set tempo
stop
Difficulty
Tuning
intermediate
D A D G B E
WARNING: You are trying to view
                                    content from Ultimate-Guitar.com
                                    in an unauthorized application,
                                    which is prohibited.

                                    Please use an official Ultimate
                                    Guitar Tabs application for iPhone,
                                    iPad or Android to access legitimate
                                    chords, guitar, bass, and drum tabs
                                    from Ultimate-Guitar.com database.

                                    Type "ultimate guitar tabs" in Apple
                                    App Store's or Android Market's
                                    search to find the application.
Ex-Creations
The Fall of Troy
               Manipulator
----------------
I figured out the delay time, 300 MS, by watching a live video and listening in the
when Thom was giving Andrew the tempo of the delay.  The delay time might be different on
record, but I doubt it.

Also, after slowing down the tapping part, i think that during recording, Thom tuned to
b string a half step down to a sharp, therefore raising all of the tap[ping on the b
on fret.  It sounds a hell of a lot better, too.  but during live performances, he 
tune that string down, its just drop d.

Remy Steele
email:  jjres.28remy28@gmail.com
aim:  hottotjjres28
14 years old, first full tab
----------------
Distorted (Guitar 1, Left)
     Starts with delay, about 300 MS
     S  S S   S  S   S  S S S  S S   S  S   S  E
E||----10-------12S-13p-0-----10-------12S-13----|
B||----------------------------------------------|
G||--7----9s-10-----------7-L----9s-10-----------|
D||----------------------------------------------|
A||----------------------------------------------|
D||----------------------------------------------|

           Delay off.
                          |--3--|  |--3--|  |--3--|
   S   S  T  T  S  Q      S  S  S  S  S  S  S  S  S  E     S  S S   S  S   S  S S S  S S
 S  S   S  S  S
--13p-12------------------------------------------------|----10-------12S-13p-0-----10-------12S-13p-0----|
---------15-----------------------------------------13--|----------------------------------------------10-|
------------14-----------------------------10-12-14-----|--7----9s-10-----------7-L----9s-10------------x-|
---------------12-12~-------------12-14-15--------------|-----------------------------------------------8-|
-------------------------12-14-15-----------------------|-------------------------------------------------|
--------------------------------------------------------|-------------------------------------------------|


                   |--3--|  |--3--|
  S  E   T T E  E  E  E  E  E  E  E       S  S S   S  S   S  S S S  S S   S  S   S  E
-------------------------------------||-----10-------12S-13p-0-----10-------12S-13p-0--|
----10s----5-5--5--------------------||------------------------------------------------|
-----x-------x--x--3--------3--------||*--7----9s-10-----------7-L----9s-10------------|
-----8s----3-3--3--3--------3--------||*-----------------------------------------------|
-------------------1--0--0--1--0--0--||------------------------------------------------|
----------------------0--0-----0--0--||------------------------------------------------|


                          |--3--|  |--3--|  |--3--|
   S   S  T  T  S  Q      S  S  S  S  S  S  S  S  S  E     S  S S   S  S   S  S S S  S S
 S  S   S  S  S
--13p-12------------------------------------------------|----10-------12S-13p-0-----10-------12S-13p-0----|
---------15-----------------------------------------13--|----------------------------------------------10-|
------------14-----------------------------10-12-14-----|--7----9s-10-----------7-L----9s-10------------x-|
---------------12-12~-------------12-14-15--------------|-----------------------------------------------8-|
-------------------------12-14-15-----------------------|-------------------------------------------------|
--------------------------------------------------------|-------------------------------------------------|


                                             W                                       PM PMPM PM
                   |--3--|  |--3--|                  |----3---|
  S  E   T T E  E  E  E  E  E  E  E          Q       E   E    E    E   E  E   E  E   T  T T  T
---------------------------------------||---------|----------------------------------------------|
----10s----5-5--5----------------------||--<>3----|------7----7----7------4------2---------------|
-----x-------x--x--3--------3--------*-||---------|-----10b--10b--10b-----7b-----5b--------------|
-----8s----3-3--3--3--------3--------*-||---------|--0-----------------8------6------------------|
-------------------1--0--0--1--0--0----||---------|--0-----------------8------6------------------|
----------------------0--0-----0--0----||---------|--0-----------------8------6------1--1--1--1--|


                                                                                  PM PM PMPM
  |----3---|            |---3--|    |---3--|      |----3---|
  E   E    E    E   E   E   E  E    E   E  E      E   E    E    E   E  E   E  E   T  T  T T
-----------------------------------------------|----------------------------------------------|
------7----7----7------------------------------|------7----7----7------4------2---------------|
-----10b--10b--10b-----18--18--L\--14--14--L\--|-----10b--10b--10b-----7b-----5b--------------|
--0-----------------8---x---x-------x---x------|--0-----------------8------6------------------|
--0-----------------8--17--17--L\--13--13--L\--|--0-----------------8------6------------------|
--0-----------------8--------------------------|--0-----------------8------6------1--1--1--1--|


  PM PM PM   W       PM PM    PM PM                                    PM PM PM PM
  |--3--|         |--3--|  |--3--|     |----3---|
  E  E  E    Q    E  E  E  E  E  E     E   E    E    E   E  E   E  E   T  T  T  T
------------------------------------|----------------------------------------------|
-----------<>3----------------------|------7----7----7------4------2---------------|
------------------------------------|-----10b--10b--10b-----7b-----5b--------------|
------------------7--------7--------|--0-----------------8------6------------------|
--0--0--0---------x--0--0--x--0--0--|--0-----------------8------6------------------|
--0--0--0---------8--0--0--8--0--0--|--0-----------------8------6------1--1--1--1--|


                                                                                  PM PM PMPM
  |----3---|            |---3--|    |---3--|      |----3---|
  E   E    E    E   E   E   E  E    E   E  E      E   E    E    E   E  E   E  E   T  T  T T
-----------------------------------------------|----------------------------------------------|
------7----7----7------------------------------|------7----7----7------4------2---------------|
-----10b--10b--10b-----18--18--L\--14--14--L\--|-----10b--10b--10b-----7b-----5b--------------|
--0-----------------8---x---x-------x---x------|--0-----------------8------6------------------|
--0-----------------8--17--17--L\--13--13--L\--|--0-----------------8------6------------------|
--0-----------------8--------------------------|--0-----------------8------6------1--1--1--1--|


  PM PM PM   W       PM PM    PM PM
  |--3--|         |--3--|  |--3--|
  E  E  E    Q    E  E  E  E  E  E
------------------------------------|
-----------<>3----------------------|
------------------------------------|
------------------7--------7--------|
--0--0--0---------x--0--0--x--0--0--|
--0--0--0---------8--0--0--8--0--0--|


  PM PM PM PM PM PM PM PM PM PM PM PM PM PM PM PM PM PM PM PM PM PM PM PM PM PM PM PM PM PMPM
  T  T  T  T  T  T  T  T  T  T  T  T  T  T  T  T  T  T  T  T  T  T  T  T  T  T  T  T  T
 S
-----------------------------------------------------------------------------------------------|
-----------------------------------------------------------------------------------------------|
--------------------------------------------------------------------------------------0h-5h-7--|
-----------0h-3h-7--------------------0h-2h-3p-0-----------------------------0h-3h-5-----------|
--0h-3h-5-----------0h-3h-5-----------------------0h-3h-5-----------0h-3h-5--------------------|
-----------------------------0h-3h-5-----------------------0h-3h-5-----------------------------|


  PM PM PM PM PM PM PM PM PM PM PM PM PM PM PM PM
  T  T  T  T  T  T  T  T  T  T  T  T  T  T  T  T    H
--------------------------------------------------------------|
--------------------------------------------------------------|
--------------------------------------------------<>7b--------|
-----------0h-3h-7--------------------0h-2h-3p-0--------------|
--0h-3h-5-----------0h-3h-5-----------------------------------|
-----------------------------0h-3h-5--------------------------|


    T  T  T T  T  T T  T  T T  T  T T  T  T  T T  T  T T  T  T T  T  T T  T  T T  T  S
  W
|----------------------------------------------------------------------------------------||--------------------|
|----------------------------------------------------------------------------------------||--------------------|
|*-----------------------------------------------------------------------------0h-5h-7-*-||--7b----------------|
|*----------0h-3h-7-----------------0h-2h-3p-0-------------------------0h-3h-5---------*-||--------------------|
|---0h-3h-5---------0h-3h-5--------------------0h-3h-5---------0h-3h-5-------------------||--------------------|
|---------------------------0h-3h-5--------------------0h-3h-5---------------------------||--------------------|


  T  T  T  T  T  T  T  T  T  T  T  T  T  T  T  T  T  T  T  T  T  T  T  T  T  T  T  T  T  T T  T
--------------------------------------------------------------------------------------------------|
--------------------------------------------------------------------------------------------------|
--7p-0h-5h-7p-0h-5h-7p-0h-5h-7p-0h-5h-7p-0h-5p-0h-8p-0h-7h-8p-0h-7h-8p-0h-7h-8p-0h-7h-8p-0h-7p-0h-|
--------------------------------------------------------------------------------------------------|
--------------------------------------------------------------------------------------------------|
--------------------------------------------------------------------------------------------------|


  T  T  T  T  T  T  T  T  T  T  T  T  T  T  T  T   T  T  T   T  T  T   T  T  T   T  T  T
 T  T  T  T
------------------------------------------------------------------------------------------------------|
------------------------------------------------------------------------------------------------------|
--5p-0h-3h-5p-0h-3h-5p-0h-3h-5p-0h-3h-5p-0h-3p-0h-10p-0h-2h-10p-0h-2h-10p-0h-2h-10p-0h-2h-10p-0h-2p-0-|
------------------------------------------------------------------------------------------------------|
------------------------------------------------------------------------------------------------------|
------------------------------------------------------------------------------------------------------|


   T  T  T   T  T  T   T  T  T   T  T  T   T  T  T  T   T  T  T   T  T  T   T  T  T   T  TT   T  T  T  T
------------------------------------------------------------------------------------------------------------|
--11p-0h-8h-11p-0h-8h-11p-0h-8h-11p-0h-8h-11p-0h-8p-0h-10p-0h-6h-10p-0h-6h-10p-0h-6h-10p-0h-6h-10p-0h-6p-0h-|
------------------------------------------------------------------------------------------------------------|
------------------------------------------------------------------------------------------------------------|
------------------------------------------------------------------------------------------------------------|
------------------------------------------------------------------------------------------------------------|


  T  T  T  T  T  T  T  T  T  T  T  T  T  T  T  T   T  T  T   T  T  T   T  T   T  T  T   T T  T   T  T
-------------------------------------------------------------------------------------------------------|
--8p-0h-4h-8p-0h-4h-8p-0h-4h-8p-0h-4h-8p-0h-4p-0h-11p-0h-3h-11p-0h-3h-11p-0h-13p-0h-1h-13p-0h-1h-13p-0-|
-------------------------------------------------------------------------------------------------------|
-------------------------------------------------------------------------------------------------------|
-------------------------------------------------------------------------------------------------------|
-------------------------------------------------------------------------------------------------------|


  T  T  T  T  T  T  T  T  T  T  T  T  T  T  T  T  T  T  T  T  T  T  T  T  T  T  T  T  T  T T  T
--------------------------------------------------------------------------------------------------|
--------------------------------------------------------------------------------------------------|
--7p-0h-5h-7p-0h-5h-7p-0h-5h-7p-0h-5h-7p-0h-5p-0h-8p-0h-7h-8p-0h-7h-8p-0h-7h-8p-0h-7h-8p-0h-7p-0h-|
--------------------------------------------------------------------------------------------------|
--------------------------------------------------------------------------------------------------|
--------------------------------------------------------------------------------------------------|


  T  T  T  T  T  T  T  T  T  T  T  T  T  T  T  T   T  T  T   T  T  T   T  T  T   T  T  T
 T  T  T  T
------------------------------------------------------------------------------------------------------|
------------------------------------------------------------------------------------------------------|
--5p-0h-3h-5p-0h-3h-5p-0h-3h-5p-0h-3h-5p-0h-3p-0h-10p-0h-2h-10p-0h-2h-10p-0h-2h-10p-0h-2h-10p-0h-2p-0-|
------------------------------------------------------------------------------------------------------|
------------------------------------------------------------------------------------------------------|
------------------------------------------------------------------------------------------------------|


   T  T  T   T  T  T   T  T  T   T  T  T   T  T  T  T   T  T  T   T  T  T   T  T  T   T  TT   T  T  T  T
------------------------------------------------------------------------------------------------------------|
--11p-0h-8h-11p-0h-8h-11p-0h-8h-11p-0h-8h-11p-0h-8p-0h-10p-0h-6h-10p-0h-6h-10p-0h-6h-10p-0h-6h-10p-0h-6p-0h-|
------------------------------------------------------------------------------------------------------------|
------------------------------------------------------------------------------------------------------------|
------------------------------------------------------------------------------------------------------------|
------------------------------------------------------------------------------------------------------------|


                                                               Effects.

                 PM PM PM PM
                                                                           |----3---|
  T  T  T  T  T  T  T  T  T  T  T  T  T  T  T  T   S  S   S  S Q           E   E    E
  E  E   E  E   T  T  T  T
------------------------------------------------------------------------|----------------------------------------------|
--8p-0h-4h-8p-0h-4h-8p-0h-4h-8p-0h-4h-8p-0h-4p-0h-11p-3h-11p-3----------|------7----7----7------4------2---------------|
------------------------------------------------------------------------|-----10b--10b--10b-----7b-----5b--------------|
------------------------------------------------------------------------|--0-----------------8------6------------------|
------------------------------------------------------------------------|--0-----------------8------6------------------|
------------------------------------------------------------------------|--0-----------------8------6------1--1--1--1--|


                                                                                  PM PM PMPM
  |----3---|            |---3--|    |---3--|      |----3---|
  E   E    E    E   E   E   E  E    E   E  E      E   E    E    E   E  E   E  E   T  T  T T
-----------------------------------------------|----------------------------------------------|
------7----7----7------------------------------|------7----7----7------4------2---------------|
-----10b--10b--10b-----18--18--L\--14--14--L\--|-----10b--10b--10b-----7b-----5b--------------|
--0-----------------8---x---x-------x---x------|--0-----------------8------6------------------|
--0-----------------8--17--17--L\--13--13--L\--|--0-----------------8------6------------------|
--0-----------------8--------------------------|--0-----------------8------6------1--1--1--1--|


  PM PM PM   W       PM PM    PM PM                                    PM PM PM PM
  |--3--|         |--3--|  |--3--|     |----3---|
  E  E  E    Q    E  E  E  E  E  E     E   E    E    E   E  E   E  E   T  T  T  T
------------------------------------|----------------------------------------------|
-----------<>3----------------------|------7----7----7------4------2---------------|
------------------------------------|-----10b--10b--10b-----7b-----5b--------------|
------------------7--------7--------|--0-----------------8------6------------------|
--0--0--0---------x--0--0--x--0--0--|--0-----------------8------6------------------|
--0--0--0---------8--0--0--8--0--0--|--0-----------------8------6------1--1--1--1--|


                                                                                  PM PM PMPM
  |----3---|            |---3--|    |---3--|      |----3---|
  E   E    E    E   E   E   E  E    E   E  E      E   E    E    E   E  E   E  E   T  T  T T
-----------------------------------------------|----------------------------------------------|
------7----7----7------------------------------|------7----7----7------4------2---------------|
-----10b--10b--10b-----18--18--L\--14--14--L\--|-----10b--10b--10b-----7b-----5b--------------|
--0-----------------8---x---x-------x---x------|--0-----------------8------6------------------|
--0-----------------8--17--17--L\--13--13--L\--|--0-----------------8------6------------------|
--0-----------------8--------------------------|--0-----------------8------6------1--1--1--1--|


  PM PM PM   W       PM PM    PM PM
  |--3--|         |--3--|  |--3--|
  E  E  E    Q    E  E  E  E  E  E     S  S S E.  S  S S E.   Q        S  S S E.  S  S S
S  S  S S  S  S  S
------------------------------------|-------------------------------|----------------------------------------|
-----------<>3----------------------|-------------------------7-----|----------------------------------------|
------------------------------------|--6b-L-L-----6b-L-L-----10b----|----------------------------------------|
------------------7--------7--------|---------4----------4----------|--6b-L-L-----7p-0-2s-4s-2p-0------------|
--0--0--0---------x--0--0--x--0--0--|---------4----------4----------|---------0-------------------4s-5s-4p-0-|
--0--0--0---------8--0--0--8--0--0--|---------4----------4----------|---------0------------------------------|


  S  S S E.  S  S S E.   Q
-------------------------------|
-------------------------7-----|
--6b-L-L-----6b-L-L-----10b----|
---------4----------4----------|
---------4----------4----------|
---------4----------4----------|


  Yes, this is the way Thom plays it.  It's ridiculous, i know
  |-3-| |-3-| |--3-| |--3-| |--3--|  |--3--|  |--3--|
  S S S S S S S S  S S S  S S  S  S  S  S  S  S  S  S  S S
---------------------7-9-10-9-10-12-10-12-14-12-14-16-17-L\-|
--------------7-9-10----------------------------------------|
--------6-7-9-----------------------------------------------|
--6-7-9-----------------------------------------------------|
------------------------------------------------------------|
------------------------------------------------------------|


  S  S S E.  S  S S E.   Q        S  S S E.  S  S S  S  S  S S  S  S  S    S  S S E.  S
S E.   Q
-------------------------------|----------------------------------------|-------------------------------|
-------------------------7-----|----------------------------------------|-------------------------7-----|
--6b-L-L-----6b-L-L-----10b----|----------------------------------------|--6b-L-L-----6b-L-L-----10b----|
---------4----------4----------|--6b-L-L-----7p-0-2s-4s-2p-0------------|---------4----------4----------|
---------4----------4----------|---------0-------------------4s-5s-4p-0-|---------4----------4----------|
---------4----------4----------|---------0------------------------------|---------4----------4----------|


  |-3-| |-3-| |--3-| |--3-| |--3--|  |--3--|  |--3--|
  S S S S S S S S  S S S  S S  S  S  S  S  S  S  S  S  S S
---------------------7-9-10-9-10-12-10-12-14-12-14-16-17-L\-|
--------------7-9-10----------------------------------------|
--------6-7-9-----------------------------------------------|
--6-7-9-----------------------------------------------------|
------------------------------------------------------------|
------------------------------------------------------------|


                                         PM PM PM   PM   PM PM PM   PM   PM
                                         |--3--|  |--3-| |--3--|  |--3-|
  Q    Q    Q     E   E   E   Q.         S  S  S  S S  S S  S  S  S S  S E   E    Q
-----------------17-------------------|-------------------------------------------------|
---------------------17---------------|-------------------------------------12---13-----|
-------------------------19--18~------|-------------------------------------15b--16b----|
--------------------------------------|-------------------------------------------------|
--------------------------------------|--0--0--0--L-0--L-0--0--0--L-0--L-0--------------|
--------------------------------------|--0--0--0--L-0--L-0--0--0--L-0--L-0--------------|


  PM PM PM PM PM PM PM PM PM              PM PM PM   PM   PM PM PM   PM   PM
                                          |--3--|  |--3-| |--3--|  |--3-|
  S  S  S  S  S  S  S  S  E    Q.         S  S  S  S S  S S  S  S  S S  S E   E   S S S S
---------------------------------------|------------------------------------------------5-|
---------------------------------------|-------------------------------------10\------6---|
---------------------------------------|--------------------------------------------7-----|
---------------------------------------|------------------------------------------0-------|
-----------------------------<>6b------|--0--0--0--L-0--L-0--0--0--L-0--L-0---------------|
--3--2--0--0--5--3--0--0--3------------|--0--0--0--L-0--L-0--0--0--L-0--L-0---------------|


                                      PM PM PM   PM   PM PM PM   PM   PM
                                      |--3--|  |--3-| |--3--|  |--3-|
  S S S S S S  S S S S S S S S S S    S  S  S  S S  S S  S  S  S S  S E   E    Q
--5--------------------------------|-------------------------------------------------|
----6-----8--------6-------5-------|-------------------------------------12---13-----|
------7-----9--------7-------6-----|-------------------------------------15b--16b----|
--------------10-------8-------7---|-------------------------------------------------|
-----------------------------------|--0--0--0--L-0--L-0--0--0--L-0--L-0--------------|
-----------------------------------|--0--0--0--L-0--L-0--0--0--L-0--L-0--------------|


  PM PM PM PM PM PM PM PM PM              PM PM PM   PM   PM PM PM   PM   PM
                                          |--3--|  |--3-| |--3--|  |--3-|
  S  S  S  S  S  S  S  S  E    Q.         S  S  S  S S  S S  S  S  S S  S E   E   S S S S
---------------------------------------|------------------------------------------------5-|
---------------------------------------|-------------------------------------10\------6---|
---------------------------------------|--------------------------------------------7-----|
-----------------------------<>6b------|------------------------------------------0-------|
---------------------------------------|--0--0--0--L-0--L-0--0--0--L-0--L-0---------------|
--3--2--0--0--5--3--0--0--3------------|--0--0--0--L-0--L-0--0--0--L-0--L-0---------------|


                                      PM PM PM   PM   PM PM PM   PM   PM
                                      |--3--|  |--3-| |--3--|  |--3-|
  S S S S S S  S S S S S S S S S S    S  S  S  S S  S S  S  S  S S  S E   E    Q
--5--------------------------------|-------------------------------------------------|
----6-----8--------6-------5-------|-------------------------------------12---13-----|
------7-----9--------7-------6-----|-------------------------------------15b--16b----|
--------------10-------8-------7---|-------------------------------------------------|
-----------------------------------|--0--0--0--L-0--L-0--0--0--L-0--L-0--------------|
-----------------------------------|--0--0--0--L-0--L-0--0--0--L-0--L-0--------------|


  PM PM PM PM PM PM PM PM                         PM PM PM   PM   PM PM PM   PM   PM
                            |------3------|       |--3--|  |--3-| |--3--|  |--3-|
  S  S  S  S  S  S  S  S    Q      Q      Q       S  S  S  S S  S S  S  S  S S  S E   E
S S S S
----------------------------------------<>5----|------------------------------------------------5-|
---------------------------------<>4-----------|-------------------------------------10\------6---|
--------------------------<>2------------------|--------------------------------------------7-----|
-----------------------------------------------|------------------------------------------0-------|
-----------------------------------------------|--0--0--0--L-0--L-0--0--0--L-0--L-0---------------|
--3--2--0--0--5--3--0--0-----------------------|--0--0--0--L-0--L-0--0--0--L-0--L-0---------------|


                                      PM PM PM   PM   PM PM PM   PM   PM
                                      |--3--|  |--3-| |--3--|  |--3-|
  S S S S S S  S S S S S S S S S S    S  S  S  S S  S S  S  S  S S  S E   E    Q
--5--------------------------------|-------------------------------------------------|
----6-----8--------6-------5-------|-------------------------------------12---13-----|
------7-----9--------7-------6-----|-------------------------------------15b--16b----|
--------------10-------8-------7---|-------------------------------------------------|
-----------------------------------|--0--0--0--L-0--L-0--0--0--L-0--L-0--------------|
-----------------------------------|--0--0--0--L-0--L-0--0--0--L-0--L-0--------------|


  PM PM PM PM PM PM PM PM PM              PM PM PM   PM   PM PM PM   PM   PM
                                          |--3--|  |--3-| |--3--|  |--3-|
  S  S  S  S  S  S  S  S  E    Q.         S  S  S  S S  S S  S  S  S S  S E   E   S S S S
---------------------------------------|------------------------------------------------5-|
---------------------------------------|-------------------------------------10\------6---|
---------------------------------------|--------------------------------------------7-----|
---------------------------------------|------------------------------------------0-------|
---------------------------------------|--0--0--0--L-0--L-0--0--0--L-0--L-0---------------|
--3--2--0--0--5--3--0--0--3--<>5b------|--0--0--0--L-0--L-0--0--0--L-0--L-0---------------|


                                           PM PM PM     PM PM PM PM
                                           |--3--|  |-3-|           |-3-|
  S S S S S S  S S S S S S S S S S    Q    S  S  S  S S S  E  E  E  S S S
--5--------------------------------|--------------------------------------|
----6-----8--------6-------5-------|----------------------------------3-6-|
------7-----9--------7-------6-----|--------------------------------6-----|
--------------10-------8-------7---|--3-----------------------------------|
-----------------------------------|--3----1--1--1--1-1-1--0--0--0--------|
-----------------------------------|--3----1--1--1--1-1-1--0--0--0--------|


        PM PM PM     PM PM PM   W            PM PM PM     PM PM PM PM                PM 
    PM PM PM
        |--3--|  |-3-|                       |--3--|  |-3-|           |-3-|
 |-3-|
  E  E  S  S  S  S S S  E  E    Q       Q    S  S  S  S S S  E  E  E  S S S    E  E  S
 S  S S S  E  E    Q
--0----------------------------------|--------------------------------------|--0-----------------------------------|
-------------------------------------|----------------------------------3-6-|------------------------------<>7b----|
------------------------------<>4----|--------------------------------6-----|--------------------------------------|
-----3-------------------------------|--3-----------------------------------|-----3--------------------------------|
-----3--1--1--1--1-1-1--0--0---------|--3----1--1--1--1-1-1--0--0--0--------|-----3--1--1--1--1-1-1--0--0----------|
-----3--1--1--1--1-1-1--0--0---------|--3----1--1--1--1-1-1--0--0--0--------|-----3--1--1--1--1-1-1--0--0----------|


           PM PM PM     PM PM PM PM     PM    PM   PM   PM                            PM 
    PM PM PM PM     PM
           |--3--|  |-3-|  |--3--|  |-3---|
 |-3-|  |--3--|  |-3----------------------|
  H        S  S  S  S S S  S  S  S  S S S     Q    Q    Q     S  S  S S     Q    Q    S  SS  S S S  S  S  S  S S S
-------------------------------------------|----------------------------|---------------------------------------------|
-------------------------------------------|----------------------------|---------------------------------------------|
-------------------------------------------|--------------------------0-|--10-----------------------------------------|
--3----------------------------------------|-----------------11-12-14---|--------3------------------------------------|
--3--------1--1--1--1-1-1--1--1--1--1-1-1--|--0----0----0---------------|--------3----1--1--1--1-1-1--1--1--1--1-1-1--|
--3--------1--1--1--1-1-1--1--1--1--1-1-1--|--0----0----0---------------|--------3----1--1--1--1-1-1--1--1--1--1-1-1--|


                                              PM PM PM     PM PM PM PM     PM    PM   PM
 PM
                                              |--3--|  |-3-|  |--3--|  |-3-|
    Q       Q       Q       Q        H        S  S  S  S S S  S  S  S  S S S     Q    Q
 Q     S  S  S S
----------------------------------|-------------------------------------------|----------------------------|
----------------------------------|-------------------------------------------|----------------------------|
--<>4b------------<>4b------------|-------------------------------------------|--------------------------0-|
----------<>7b------------<>7b----|--3----------------------------------------|-----------------11-12-14---|
----------------------------------|--3--------1--1--1--1-1-1--1--1--1--1-1-1--|--0----0----0---------------|
----------------------------------|--3--------1--1--1--1-1-1--1--1--1--1-1-1--|--0----0----0---------------|


             PM PM PM     PM PM PM PM     PM
             |--3--|  |-3-|  |--3--|  |-3-|
   Q    Q    S  S  S  S S S  S  S  S  S S S       Q       Q       Q       Q        H
  H
---------------------------------------------|----------------------------------|--------------------|
---------------------------------------------|----------------------------------|--------------------|
--10-----------------------------------------|--<>6b------------<>6b------------|--------------------|
--------3------------------------------------|----------<>8b------------<>9b----|--3--------1--------|
--------3----1--1--1--1-1-1--1--1--1--1-1-1--|----------------------------------|--3--------1--------|
--------3----1--1--1--1-1-1--1--1--1--1-1-1--|----------------------------------|--3--------1--------|


  Q    Q    Q     Q     Q     Q
-----------------------------------||
-----------------------------------||
-----------------------------------||
------------3/---------12\----0----||
--0----0----3/----0----12\----0----||
--0----0----3/----0----12\----0----||


Distorted (Gutiar 2, Right)
                                                              |--3--|  |--3--|
                     H        Q.     S  S    S  E   T T E  E  E  E  E  E  E  E
E||-------|-------|-----------------------|-------------------------------------|
B||-------|-------|--------------------10-|----10s----5-5--5--------------------|
G||-------|-------|---------------------x-|-----x-------x--x--3--------3--------|
D||-------|-------|---------------------8-|-----8s----3-3--3--3--------3--------|
A||-------|-------|-----------------------|-------------------1--0--0--1--0--0--|
D||-------|-------|-----------------------|----------------------0--0-----0--0--|


                                                                            |--3--|  |--3--| |--3--|
    S  S S   S  S   S  S S S  S S   S  S   S  E      S   S  T  T  S  Q      S  S  S  S
 S  S  S  S  E
|-----10-------12S-13p-0-----10-------12S-13p-0--|--13p-12------------------------------------------------|
|------------------------------------------------|---------15-----------------------------------------13--|
|*--7----9s-10-----------7-L----9s-10------------|------------14-----------------------------10-12-14-----|
|*-----------------------------------------------|---------------12-12~-------------12-14-15--------------|
|------------------------------------------------|-------------------------12-14-15-----------------------|
|------------------------------------------------|--------------------------------------------------------|

     W
                                                                     |--3--|  |--3--|
  S  S S   S  S   S  S S S  S S   S  S   S  S  S    S  E   T T E  E  E  E  E  E  E  E
     Q
----10-------12S-13p-0-----10-------12S-13p-0----|---------------------------------------||---------|
----------------------------------------------10-|----10s----5-5--5----------------------||--<>3----|
--7----9s-10-----------7-L----9s-10------------x-|-----x-------x--x--3--------3--------*-||---------|
-----------------------------------------------8-|-----8s----3-3--3--3--------3--------*-||---------|
-------------------------------------------------|-------------------1--0--0--1--0--0----||---------|
-------------------------------------------------|----------------------0--0-----0--0----||---------|


                          PM PM PM PM
                 PM PM PM PM
  |--3--|                                |--3--|         |---3--|    |---3--|      |--3--|
  E  E  E  E  E  E  E  E  T  T  T  T     E  E  E  E  E   E   E  E    E   E  E      E  E
 E  E  E  E  E  T  T  T  T
--------------------------------------|-----------------------------------------|--------------------------------------|
--------------------------------------|-----------------------------------------|--------------------------------------|
--------------------------------------|-----------------18--18--L\--14--14--L\--|--------------------------------------|
--0-----------8-----6-----------------|--0-----------8---x---x-------x---x------|--0-----------8-----6-----------------|
--0-----------8-----6-----------------|--0-----------8--17--17--L\--13--13--L\--|--0-----------8-----6-----------------|
--0-----------8-----6-----1--1--1--1--|--0-----------8--------------------------|--0-----------8-----6-----1--1--1--1--|


  PM PM PM   W       PM PM    PM PM                                    PM PM PM PM
  |--3--|         |--3--|  |--3--|     |----3---|
  E  E  E    Q    E  E  E  E  E  E     E   E    E    E   E  E   E  E   T  T  T  T
------------------------------------|----------------------------------------------|
-----------<>3----------------------|------7----7----7------4------2---------------|
------------------------------------|-----10b--10b--10b-----7b-----5b--------------|
------------------7--------7--------|--0-----------------8------6------------------|
--0--0--0---------x--0--0--x--0--0--|--0-----------------8------6------------------|
--0--0--0---------8--0--0--8--0--0--|--0-----------------8------6------1--1--1--1--|


                                                                                  PM PM PMPM
  |----3---|            |---3--|    |---3--|      |----3---|
  E   E    E    E   E   E   E  E    E   E  E      E   E    E    E   E  E   E  E   T  T  T T
-----------------------------------------------|----------------------------------------------|
------7----7----7------------------------------|------7----7----7------4------2---------------|
-----10b--10b--10b-----18--18--L\--14--14--L\--|-----10b--10b--10b-----7b-----5b--------------|
--0-----------------8---x---x-------x---x------|--0-----------------8------6------------------|
--0-----------------8--17--17--L\--13--13--L\--|--0-----------------8------6------------------|
--0-----------------8--------------------------|--0-----------------8------6------1--1--1--1--|


  PM PM PM   W       PM PM    PM PM
  |--3--|         |--3--|  |--3--|
  E  E  E    Q    E  E  E  E  E  E     E  Q.     E  Q.        E  Q.       H
------------------------------------|----------------------|------------------------|
-----------<>3----------------------|----------------------|------------------------|
------------------------------------|----------------------|------------<>7b--------|
------------------7--------7--------|--0---------0---------|--0---------------------|
--0--0--0---------x--0--0--x--0--0--|--0---------0---------|--0---------------------|
--0--0--0---------8--0--0--8--0--0--|--0---------0---------|--0---------------------|


    T  T  T T  T  T T  T  T T  T  T T  T  T  T T  T  T T  T  T T  T  T T  T  T T  T  S
  W
|----------------------------------------------------------------------------------------||--------------------|
|----------------------------------------------------------------------------------------||--------------------|
|*-----------------------------------------------------------------------------0h-5h-7-*-||--7b----------------|
|*----------0h-3h-7-----------------0h-2h-3p-0-------------------------0h-3h-5---------*-||--------------------|
|---0h-3h-5---------0h-3h-5--------------------0h-3h-5---------0h-3h-5-------------------||--------------------|
|---------------------------0h-3h-5--------------------0h-3h-5---------------------------||--------------------|


   T  T  T   T  T  T   T  T  T   T  T  T   T  T  T  T   T  T   T   T  T   T   T  T   T   TT   T   T  T   T  T
-----------------------------------------------------------------------------------------------------------------|
-----------------------------------------------------------------------------------------------------------------|
--10p-0h-7h-10p-0h-7h-10p-0h-7h-10p-0h-7h-10p-0h-7p-0h-12p-0h-10h-12p-0h-10h-12p-0h-10h-12p-0h-10h-12p-0h-10p-0h-|
-----------------------------------------------------------------------------------------------------------------|
-----------------------------------------------------------------------------------------------------------------|
-----------------------------------------------------------------------------------------------------------------|


  T  T  T  T  T  T  T  T  T  T  T  T  T  T  T  T  T  T  T   T  T  T   T  T  T   T  T  T
T  T  T  T
------------------------------------------------------------------------------------------------------|
-------------------------------------------------11p-0h-8h-11p-0h-8h-11p-0h-8h-11p-0h-8h-11p-0h-8p-0h-|
--9p-0h-7h-9p-0h-7h-9p-0h-7h-9p-0h-7h-9p-0h-7p-0------------------------------------------------------|
------------------------------------------------------------------------------------------------------|
------------------------------------------------------------------------------------------------------|
------------------------------------------------------------------------------------------------------|


   T  T   T   T  T   T   T  T   T   T  T   T   T  T   T  T   T  T   T   T  T   T   T  T
T   T  T   T   T  T   T  T
----------------------------------------------------------------------------------------------------------------------|
--15p-0h-11h-15p-0h-11h-15p-0h-11h-15p-0h-11h-15p-0h-11p-0h-13p-0h-10h-13p-0h-10h-13p-0h-10h-13p-0h-10h-13p-0h-10p-0h-|
----------------------------------------------------------------------------------------------------------------------|
----------------------------------------------------------------------------------------------------------------------|
----------------------------------------------------------------------------------------------------------------------|
----------------------------------------------------------------------------------------------------------------------|


   T  T  T   T  T  T   T  T  T   T  T  T   T  T  T  T   T  T  T   T  T  T   T  T  T   T  TT   T  T  T  T
-----------------------------------------------------------------------------------------------------------|
--11p-0h-8h-11p-0h-8h-11p-0h-8h-11p-0h-8h-11p-0h-8p-0h-15p-0h-6h-15p-0h-6h-15p-0h-5h-13p-0h-5h-13p-0h-5p-0-|
-----------------------------------------------------------------------------------------------------------|
-----------------------------------------------------------------------------------------------------------|
-----------------------------------------------------------------------------------------------------------|
-----------------------------------------------------------------------------------------------------------|


   T  T  T   T  T  T   T  T  T   T  T  T   T  T  T  T   T  T   T   T  T   T   T  T   T   TT   T   T  T   T  T
-----------------------------------------------------------------------------------------------------------------|
-----------------------------------------------------------------------------------------------------------------|
--10p-0h-9h-10p-0h-9h-10p-0h-9h-10p-0h-9h-10p-0h-9p-0h-12p-0h-10h-12p-0h-10h-12p-0h-10h-12p-0h-10h-12p-0h-10p-0h-|
-----------------------------------------------------------------------------------------------------------------|
-----------------------------------------------------------------------------------------------------------------|
-----------------------------------------------------------------------------------------------------------------|


  T  T  T  T  T  T  T  T  T  T  T  T  T  T  T  T  T  T  T   T  T  T   T  T  T   T  T  T
T  T  T  T
------------------------------------------------------------------------------------------------------|
-------------------------------------------------11p-0h-8h-11p-0h-8h-11p-0h-8h-11p-0h-8h-11p-0h-8p-0h-|
--9p-0h-7h-9p-0h-7h-9p-0h-7h-9p-0h-7h-9p-0h-7p-0------------------------------------------------------|
------------------------------------------------------------------------------------------------------|
------------------------------------------------------------------------------------------------------|
------------------------------------------------------------------------------------------------------|


   T  T   T   T  T   T   T  T   T   T  T   T   T  T   T  T   T  T   T   T  T   T   T  T
T   T  T   T   T  T   T  T
----------------------------------------------------------------------------------------------------------------------|
--15p-0h-11h-15p-0h-11h-15p-0h-11h-15p-0h-11h-15p-0h-11p-0h-13p-0h-10h-13p-0h-10h-13p-0h-10h-13p-0h-10h-13p-0h-10p-0h-|
----------------------------------------------------------------------------------------------------------------------|
----------------------------------------------------------------------------------------------------------------------|
----------------------------------------------------------------------------------------------------------------------|
----------------------------------------------------------------------------------------------------------------------|


                                                                    Effects.

              PM PM PM PM
                                                                                |--3--|
   T  T  T   T  T  T   T  T  T   T  T  T   T  T  T  T   S  S   S  S Q           E  E  E
 E  E  E  E  T  T  T  T
-----------------------------------------------------------------------------|--------------------------------------|
--11p-0h-8h-11p-0h-8h-11p-0h-8h-11p-0h-8h-11p-0h-8p-0h-15p-6h-15p-6----------|--------------------------------------|
-----------------------------------------------------------------------------|--------------------------------------|
-----------------------------------------------------------------------------|--0-----------8-----6-----------------|
-----------------------------------------------------------------------------|--0-----------8-----6-----------------|
-----------------------------------------------------------------------------|--0-----------8-----6-----1--1--1--1--|


                                                                    PM PM PM PM    PM PM PM W       PM PM    PM PM
  |--3--|         |---3--|    |---3--|      |--3--|                                |--3--|       |--3--|  |--3--|
  E  E  E  E  E   E   E  E    E   E  E      E  E  E  E  E  E  E  E  T  T  T  T     E  E  E  Q    E  E  E  E  E  E
-----------------------------------------|--------------------------------------|------------------------------------|
-----------------------------------------|--------------------------------------|-----------<>3----------------------|
-----------------18--18--L\--14--14--L\--|--------------------------------------|------------------------------------|
--0-----------8---x---x-------x---x------|--0-----------8-----6-----------------|------------------7--------7--------|
--0-----------8--17--17--L\--13--13--L\--|--0-----------8-----6-----------------|--0--0--0---------x--0--0--x--0--0--|
--0-----------8--------------------------|--0-----------8-----6-----1--1--1--1--|--0--0--0---------8--0--0--8--0--0--|


                                  PM PM PM PM
  |----3---|                                     |----3---|            |---3--|    |---3--|
  E   E    E    E   E  E   E  E   T  T  T  T     E   E    E    E   E   E   E  E    E   E
E
----------------------------------------------|-----------------------------------------------|
------7----7----7------4------2---------------|------7----7----7------------------------------|
-----10b--10b--10b-----7b-----5b--------------|-----10b--10b--10b-----18--18--L\--14--14--L\--|
--0-----------------8------6------------------|--0-----------------8---x---x-------x---x------|
--0-----------------8------6------------------|--0-----------------8--17--17--L\--13--13--L\--|
--0-----------------8------6------1--1--1--1--|--0-----------------8--------------------------|


                                  PM PM PM PM    PM PM PM   W       PM PM    PM PM
  |----3---|                                     |--3--|         |--3--|  |--3--|
  E   E    E    E   E  E   E  E   T  T  T  T     E  E  E    Q    E  E  E  E  E  E     S
S E.  S  S S E.   Q
----------------------------------------------|------------------------------------|-------------------------------|
------7----7----7------4------2---------------|-----------<>3----------------------|-------------------------7-----|
-----10b--10b--10b-----7b-----5b--------------|------------------------------------|--6b-L-L-----6b-L-L-----10b----|
--0-----------------8------6------------------|------------------7--------7--------|---------4----------4----------|
--0-----------------8------6------------------|--0--0--0---------x--0--0--x--0--0--|---------4----------4----------|
--0-----------------8------6------1--1--1--1--|--0--0--0---------8--0--0--8--0--0--|---------4----------4----------|


  S  S S E.  S  S S  S  S  S S  S  S  S    S  S S E.  S  S S E.   Q        H.
Q
----------------------------------------|-------------------------------|-----------------------|
----------------------------------------|-------------------------7-----|-----------------------|
----------------------------------------|--6b-L-L-----6b-L-L-----10b----|-----------------------|
--6b-L-L-----7p-0-2s-4s-2p-0------------|---------4----------4----------|-----------------------|
---------0-------------------4s-5s-4p-0-|---------4----------4----------|--0--------------------|
---------0------------------------------|---------4----------4----------|--0h------------16\----|


  S  S S E.  S  S S E.   Q        S  S S E.  S  S S  S  S  S S  S  S  S    S  S S E.  S
S E.   Q
-------------------------------|----------------------------------------|-------------------------------|
-------------------------7-----|----------------------------------------|-------------------------7-----|
--6b-L-L-----6b-L-L-----10b----|----------------------------------------|--6b-L-L-----6b-L-L-----10b----|
---------4----------4----------|--6b-L-L-----7p-0-2s-4s-2p-0------------|---------4----------4----------|
---------4----------4----------|---------0-------------------4s-5s-4p-0-|---------4----------4----------|
---------4----------4----------|---------0------------------------------|---------4----------4----------|

  Yes, this is the way Thom plays it.  It's ridiculous, i know
  |-3-| |-3-| |--3-| |--3-| |--3--|  |--3--|  |--3--|
  S S S S S S S S  S S S  S S  S  S  S  S  S  S  S  S  S S
---------------------7-9-10-9-10-12-10-12-14-12-14-16-17-L\-|
--------------7-9-10----------------------------------------|
--------6-7-9-----------------------------------------------|
--6-7-9-----------------------------------------------------|
------------------------------------------------------------|
------------------------------------------------------------|


                                         PM PM PM   PM   PM PM PM   PM   PM
                                         |--3--|  |--3-| |--3--|  |--3-|
  Q    Q    Q     E   E   E   Q.         S  S  S  S S  S S  S  S  S S  S E   E    Q
-----------------14-------------------|-------------------------------------------------|
---------------------14---------------|-------------------------------------12---13-----|
-------------------------16--14~------|-------------------------------------15b--16b----|
--------------------------------------|-------------------------------------------------|
--------------------------------------|--0--0--0--L-0--L-0--0--0--L-0--L-0--------------|
--------------------------------------|--0--0--0--L-0--L-0--0--0--L-0--L-0--------------|


  PM PM PM PM PM PM PM PM PM              PM PM PM   PM   PM PM PM   PM   PM
                                          |--3--|  |--3-| |--3--|  |--3-|
  S  S  S  S  S  S  S  S  E    Q.         S  S  S  S S  S S  S  S  S S  S E   E   S S S S
---------------------------------------|------------------------------------------------5-|
---------------------------------------|-------------------------------------10\------6---|
---------------------------------------|--------------------------------------------7-----|
-----------------------------<>3b------|------------------------------------------0-------|
---------------------------------------|--0--0--0--L-0--L-0--0--0--L-0--L-0---------------|
--3--2--0--0--5--3--0--0--3------------|--0--0--0--L-0--L-0--0--0--L-0--L-0---------------|


                                      PM PM PM   PM   PM PM PM   PM   PM
                                      |--3--|  |--3-| |--3--|  |--3-|
  S S S S S S  S S S S S S S S S S    S  S  S  S S  S S  S  S  S S  S E   E    Q
--5--------------------------------|-------------------------------------------------|
----6-----8--------6-------5-------|-------------------------------------12---13-----|
------7-----9--------7-------6-----|-------------------------------------15b--16b----|
--------------10-------8-------7---|-------------------------------------------------|
-----------------------------------|--0--0--0--L-0--L-0--0--0--L-0--L-0--------------|
-----------------------------------|--0--0--0--L-0--L-0--0--0--L-0--L-0--------------|


  PM PM PM PM PM PM PM PM PM              PM PM PM   PM   PM PM PM   PM   PM
                                          |--3--|  |--3-| |--3--|  |--3-|
  S  S  S  S  S  S  S  S  E    Q.         S  S  S  S S  S S  S  S  S S  S E   E   S S S S
---------------------------------------|------------------------------------------------5-|
---------------------------------------|-------------------------------------10\------6---|
---------------------------------------|--------------------------------------------7-----|
-----------------------------<>6b------|------------------------------------------0-------|
---------------------------------------|--0--0--0--L-0--L-0--0--0--L-0--L-0---------------|
--3--2--0--0--5--3--0--0--3------------|--0--0--0--L-0--L-0--0--0--L-0--L-0---------------|


                                      PM PM PM PM PM PM PM                PM PM PM PM PM PMPM PM

          |------3------|
  S S S S S S  S S S S S S S S S S    S  S  E  S  S  E  E   E    Q        S  S  S  S  S
 S  S    Q      Q      Q
--5--------------------------------|-----------------------------------|----------------------------------------<>5----|
----6-----8--------6-------5-------|-----------------------12---13-----|---------------------------------<>4-----------|
------7-----9--------7-------6-----|-----------------------15b--16b----|--------------------------<>2------------------|
--------------10-------8-------7---|-----------------------------------|-----------------------------------------------|
-----------------------------------|--0--0--0--0--0--0--0--------------|-----------------------------------------------|
-----------------------------------|--0--0--0--0--0--0--0--------------|--3--2--0--0--5--3--0--0-----------------------|


  PM PM PM   PM   PM PM PM   PM   PM
  |--3--|  |--3-| |--3--|  |--3-|
  S  S  S  S S  S S  S  S  S S  S E   E   S S S S    S S S S S S  S S S S S S S S S S
------------------------------------------------5-|--5--------------------------------|
-------------------------------------10\------6---|----6-----8--------6-------5-------|
--------------------------------------------7-----|------7-----9--------7-------6-----|
------------------------------------------0-------|--------------10-------8-------7---|
--0--0--0--L-0--L-0--0--0--L-0--L-0---------------|-----------------------------------|
--0--0--0--L-0--L-0--0--0--L-0--L-0---------------|-----------------------------------|


  PM PM PM   PM   PM PM PM   PM   PM                PM PM PM PM PM PM PM PM PM
  |--3--|  |--3-| |--3--|  |--3-|
  S  S  S  S S  S S  S  S  S S  S E   E    Q        S  S  S  S  S  S  S  S  E    Q.
-------------------------------------------------|--------------------------------------|
-------------------------------------12---13-----|--------------------------------------|
-------------------------------------15b--16b----|--------------------------------------|
-------------------------------------------------|-----------------------------<>6------|
--0--0--0--L-0--L-0--0--0--L-0--L-0--------------|--------------------------------------|
--0--0--0--L-0--L-0--0--0--L-0--L-0--------------|--3--2--0--0--5--3--0--0--3-----------|


  PM PM PM   PM   PM PM PM   PM   PM
  |--3--|  |--3-| |--3--|  |--3-|
  S  S  S  S S  S S  S  S  S S  S E   E   S S S S    S S S S S S  S S S S S S S S S S
------------------------------------------------5-|--5--------------------------------|
-------------------------------------10\------6---|----6-----8--------6-------5-------|
--------------------------------------------7-----|------7-----9--------7-------6-----|
------------------------------------------0-------|--------------10-------8-------7---|
--0--0--0--L-0--L-0--0--0--L-0--L-0---------------|-----------------------------------|
--0--0--0--L-0--L-0--0--0--L-0--L-0---------------|-----------------------------------|


       PM PM PM     PM PM PM PM             PM PM PM     PM PM PM PM            PM PM PM
   PM PM PM PM
       |--3--|  |-3-|                       |--3--|  |-3-|                      |--3--|  |-3-|
  Q    S  S  S  S S S  E  E  E  E     E  E  S  S  S  S S S  E  E  E  E     Q    S  S  S
S S  E  E  E  E
-----------------------------------|------------------------------------|-----------------------------------|
-----------------------------------|------------------------------------|-----------------------------------|
-----------------------------------|------------------------------------|-----------------------------------|
--3--------------------------------|-----3------------------------------|--3--------------------------------|
--3----1--1--1--1-1-1--0--0--0-----|-----3--1--1--1--1-1-1--0--0--0-----|--3----1--1--1--1-1-1--0--0--0-----|
--3----1--1--1--1-1-1--0--0--0-----|-----3--1--1--1--1-1-1--0--0--0-----|--3----1--1--1--1-1-1--0--0--0-----|


        PM PM PM     PM PM PM                     PM PM PM     PM PM PM PM     PM    PM
PM   PM
        |--3--|  |-3-|                            |--3--|  |-3-|  |--3--|  |-3-|
  E  E  S  S  S  S S S  E  E    Q        H        S  S  S  S S S  S  S  S  S S S     Q
Q    Q     S  S  S S
--------------------------------------|-------------------------------------------|----------------------------|
------------------------------<>7b----|-------------------------------------------|----------------------------|
--------------------------------------|-------------------------------------------|--------------------------9-|
-----3--------------------------------|--3----------------------------------------|-----------------11-11-12---|
-----3--1--1--1--1-1-1--0--0----------|--3--------1--1--1--1-1-1--1--1--1--1-1-1--|--0----0----0---------------|
-----3--1--1--1--1-1-1--0--0----------|--3--------1--1--1--1-1-1--1--1--1--1-1-1--|--0----0----0---------------|


            PM PM PM     PM PM PM PM     PM    PM   PM                         PM PM PM
  PM PM PM PM     PM
            |--3--|  |-3-|  |--3--|  |-3-|                                     |--3--|  |-3-||--3--|  |-3-|
  Q    Q    S  S  S  S S S  S  S  S  S S S     Q    Q    Q    Q       H        S  S  S  
S  S  S  S  S S S
--------------------------------------------|----------------------|-------------------------------------------|
--6-----------------------------------------|----------------------|-------------------------------------------|
--------------------------------------------|----------------------|-------------------------------------------|
-------3------------------------------------|------------0---------|--3----------------------------------------|
-------3----1--1--1--1-1-1--1--1--1--1-1-1--|--0----0----0---------|--3--------1--1--1--1-1-1--1--1--1--1-1-1--|
-------3----1--1--1--1-1-1--1--1--1--1-1-1--|--0----0----0---------|--3--------1--1--1--1-1-1--1--1--1--1-1-1--|


  PM   PM   PM                             PM PM PM     PM PM PM PM     PM    PM   PM
                                           |--3--|  |-3-|  |--3--|  |-3-|
  Q    Q    Q     S  S S S     E.   S Q    S  S  S  S S S  S  S  S  S S S     Q    Q
   Q       H        H
---------------------------|-----------------------------------------------|----------------------|--------------------|
---------------------------|-----------------------------------------------|----------------------|--------------------|
-----------------------0-9-|--10p---0--------------------------------------|----------------------|--------------------|
-----------------11-12-----|----------3------------------------------------|------------0---------|--3--------1--------|
--0----0----0--------------|----------3----1--1--1--1-1-1--1--1--1--1-1-1--|--0----0----0---------|--3--------1--------|
--0----0----0--------------|----------3----1--1--1--1-1-1--1--1--1--1-1-1--|--0----0----0---------|--3--------1--------|


  Q    Q    Q     Q     Q     Q
-----------------------------------||
-----------------------------------||
-----------------------------------||
------------3/---------12\----0----||
--0----0----3/----0----12\----0----||
--0----0----3/----0----12\----0----||


Duration Legend
---------------
W - whole
H - half
Q - quarter
E - 8th
S - 16th
T - 32nd
X - 64th
. - note dotted
|-n-|  - n-tuplets


Tablature Legend
----------------
L - tied note
x - dead note
g - grace note
(n) - ghost note
> - accentuded note
NH - natural harmonic
AH - artificial harmonic
TH - tapped harmonic
SH - semi harmonic
PH - pitch harmonic
h - hammer on
p - pull off
b - bend
br - bendRelease
pb - preBend
pbr - preBendRelease
brb - bendReleaseBend
\n/ - tremolo bar dip
\n - tremolo bar dive
-/n - tremolo bar Release up
/n\ - tremolo bar inverted dip
/n - tremolo bar return
-\n - tremolo bar Release down
S - shift slide
s - legato slide
/ -  slide into from below or out of upwards
\ -  slide into from above or out of downwards
~ - vibrato
W - wide vibrato
tr - tril'
TP - tremolo picking
T - tapping
S - slap
P - pop
< - fade in
^ - brush up
v - brush down
comments
print report bad tab
20 comments total. Showing first comments.
0 reply
IUseAPurplePick wrote on May 20 2007, 01:43 pm

Dude, this is ****ing awesome. I don't see how you even tabbed it, lmao. Thanks a lot, man.

0 reply
and1streeter wrote on May 27 2007, 04:36 pm

solid tab man

+4 reply
don't eat baby wrote on June 5 2007, 05:48 pm

this is your first tab and you're 14?

super props.

I want to post or [tab]
guest
You may want to rate the tab now too:
select rating
Please do not post tabs as comments. Select "correction" instead!