Oops, an error
Loading. Please wait.

Fcpremix Tab

ver1
ver1
More versions @911Tabs.com
133,308 views 93 this week
11 commentsread comments
1 2 3 4 5
accurate
x 20
Autoscroll
+/-
esc
set tempo
stop
Contributor
WARNING: You are trying to view
                                    content from Ultimate-Guitar.com
                                    in an unauthorized application,
                                    which is prohibited.

                                    Please use an official Ultimate
                                    Guitar Tabs application for iPhone,
                                    iPad or Android to access legitimate
                                    chords, guitar, bass, and drum tabs
                                    from Ultimate-Guitar.com database.

                                    Type "ultimate guitar tabs" in Apple
                                    App Store's or Android Market's
                                    search to find the application.
welll there is uber delay/disto in this song so be ready and have that

Intro
with a lot of delay and some distortion
e------------------------------------------------------------------7-----|
b---------8---------5--------3-----------------8--------5----3-3---------|
g------5---------5--------0-----------5-----5--------5-------------------|
d---7---------7--------2--------0--3-----7--------7----------------------| x2
a------------------------------------------------------------------------|
E------------------------------------------------------------------------|

verse 1
with distortion
e----------------------------------------------------------------------|
b---------8---------5--------3-----------------8--------5--------------|
g------5---------5--------0-----------5-----5--------5-----------------|
d---7---------7--------2--------0--3-----7--------7--------777---------|
a----------------------------------------------------------555--555----|
E---------------------------------------------------------------333----|

                                                      harmonics on the 12
e------------------------------------------------------------------------|
b---------8---------5--------3-----------------8--------5----3-------12--|
g------5---------5--------0-----------5-----5--------5-------------------|
d---7---------7--------2--------0--3-----7--------7----------------------|
a------------------------------------------------------------------------|
E------------------------------------------------------------------------|

e----------------------------------------------------------------------|
b---------8---------5--------3-----------------8--------5--------------|
g------5---------5--------0-----------5-----5--------5-----------------|
d---7---------7--------2--------0--3-----7--------7--------777---------|
a----------------------------------------------------------555--555----|
E---------------------------------------------------------------333----|

e----------------------------------------------------------------------|
b---------8---------5--------3-----------------8--------5------3bend---|
g------5---------5--------0-----------5-----5--------5-----------------|
d---7---------7--------2--------0--3-----7--------7--------------------|
a----------------------------------------------------------------------|
E----------------------------------------------------------------------|

e----------------------------------------------------------------------|
b---------8---------5--------3-----------------8--------5--------------|
g------5---------5--------0-----------5-----5--------5-----------------|
d---7---------7--------2--------0--3-----7--------7--------777---------|
a----------------------------------------------------------555--555----|
E---------------------------------------------------------------333----|

                                                          P.M.
e----------------------------------------------------------------------|
b---------8---------5--------3-----------------8--------5--------------|
g------5---------5--------0-----------5-----5--------5-----------------|
d---7---------7--------2--------0--3-----7--------7--------77---777777-|
a----------------------------------------------------------55---555555-|
E----------------------------------------------------------------------|

Chorus

e--5-3-0---5-3-0---5-3-0---5-3-0---5-3-0--------15------15------15------15--|
B------------------------------------------12h13---12h13---12h13---12h13----|
g---------------------------------------------------------------------------|
d---------------------------------------------------------------------------|
a---------------------------------------------------------------------------|
E---------------------------------------------------------------------------|

e-------15--0-1-3---0-3-5---0-1-3---0-3-5---0-1-3--------8------8-------|
b--12h13----------------------------------------------5h6---5h6----5h6--|
g-----------------------------------------------------------------------|
d-----------------------------------------------------------------------|
a-----------------------------------------------------------------------|
E-----------------------------------------------------------------------|

e-----10-----10--------|
b--6h8----6h8----6h8---|
g----------------------|
d----------------------| play  the whole thing twice
a----------------------|
E----------------------|

Verse 2
e----------------------------------------------------------------------|
b---------8---------5--------3-----------------8--------5--------------|
g------5---------5--------0-----------5-----5--------5-----------------|
d---7---------7--------2--------0--3-----7--------7--------777---------|
a----------------------------------------------------------555--555----|
E---------------------------------------------------------------333----|

e----------------------------------------------------------------------|
b---------8---------5--------3-----------------8--------5------3bend---|
g------5---------5--------0-----------5-----5--------5-----------------|
d---7---------7--------2--------0--3-----7--------7--------------------|
a----------------------------------------------------------------------|
E----------------------------------------------------------------------|

e----------------------------------------------------------------------|
b---------8---------5--------3-----------------8--------5--------------|
g------5---------5--------0-----------5-----5--------5-----------------|
d---7---------7--------2--------0--3-----7--------7--------777---------|
a----------------------------------------------------------555--555----|
E---------------------------------------------------------------333----|

e--------------------------------------------------------------------------|
b---------8---------5--------3-----------------8--------5------3bend 5bend-|
g------5---------5--------0-----------5-----5--------5---------------------|
d---7---------7--------2--------0--3-----7--------7------------------------|
a--------------------------------------------------------------------------|
E--------------------------------------------------------------------------|

e----------------------------------------------------------------------|
b---------8---------5--------3-----------------8--------5--------------|
g------5---------5--------0-----------5-----5--------5-----------------|
d---7---------7--------2--------0--3-----7--------7--------777---------|
a----------------------------------------------------------555--555----|
E---------------------------------------------------------------333----|

                                                          P.M.
e----------------------------------------------------------------------|
b---------8---------5--------3-----------------8--------5--------------|
g------5---------5--------0-----------5-----5--------5-----------------|
d---7---------7--------2--------0--3-----7--------7--------77---777777-|
a----------------------------------------------------------55---555555-|
E----------------------------------------------------------------------|

Chorus again

e--5-3-0---5-3-0---5-3-0---5-3-0---5-3-0--------15------15------15------15--|
B------------------------------------------12h13---12h13---12h13---12h13----|
g---------------------------------------------------------------------------|
d---------------------------------------------------------------------------|
a---------------------------------------------------------------------------|
E---------------------------------------------------------------------------|

e-------15--0-1-3---0-3-5---0-1-3---0-3-5---0-1-3--------8------8-------|
b--12h13----------------------------------------------5h6---5h6----5h6--|
g-----------------------------------------------------------------------|
d-----------------------------------------------------------------------|
a-----------------------------------------------------------------------|
E-----------------------------------------------------------------------|

e-----10-----10--------|
b--6h8----6h8----6h8---|
g----------------------|
d----------------------| play  the whole thing twice
a----------------------|
E----------------------|


now you put the delay back on
e-------5---8--5------5---8--5-----------------------------|
b-----5---5---------5---5-----------5--8--5-----5-6-5------|
g---7-------------7---------------5--5---------------------| play once
d-------------------------------7--------------------------|
a----------------------------------------------------------|
E----------------------------------------------------------|


e-------5---8--5------5---8--5-----------------------------|
b-----5---5---------5---5-----------5--8--5-----5-6-5------|
g---7-------------7---------------5--5---------------------|
d-------------------------------7--------------------------| x4
a----------------------------------------------------------|
E----------------------------------------------------------|

e---5-xxxxx-5-xxxxx---xxxxx------------------------|
b---5-xxxxx-5-xxxxx-5-xxxxx-5----5-6-5-------------|
g---7-xxxxx-7-xxxxx-5-xxxxx-5----------------------|
d-----xxxxx---xxxxx-7-xxxxx-7----------------------|
a-----xxxxx---xxxxx---xxxxx------------------------|
E-----xxxxx---xxxxx---xxxxx------------------------|

e------5--10131313131310----5--10131313131310-------------------------------|
b------5----------------13--5----------------13---5--10131313131310-----565-|
g------7--------------------7---------------------5----------------13-------|
d-------------------------------------------------7-------------------------|
a---------------------------------------------------------------------------|
E---------------------------------------------------------------------------|

e---------------------------------------------------------8-----------------|
b-------------------------------------------------------6---6---------------|
g-----------5--------------------------------------7777-------7777--5-7-5---|
d---------3---3-----------------------3----2-3-2----------------------------|
a---55555--------55555-3-5-3--------3---3-----------------------------------|
E-----------------------------55555-----------------------------------------|

e-------------------------------------------------------------|
b---------6-5----5-6-5----------------------------------------|
g-------5----------------------8--let ring for a while---8----|
d--7777------------------------7--let ring for a while---7----|
a-------------------------------------------------------------|
E-------------------------------------------------------------|

Breakdown

e------------------------------------------------------------------|
b------------------------------------------------------------------|
g--8-let ring for a while---8---------8-let ring for a while---8---|
d--7-let ring for a while---7---------7-let ring for a while---7---|
a------------------------------------------------------------------|
E------------------------------------------------------------------|


e--------xxx-------xxx-------xxx-------xxx---x-x----x-x----x----------------|
b--------xxx-------xxx-------xxx-------xxx---x-x----x-x----x----------------|
g--8h9-8-xxx-8h9-8-xxx-8h9-8-xxx-8h9-8-xxx--8x8x9--8x8x9--8x8-9--pick slide-|
d--7-----xxx-7-----xxx-7-----xxx-7-----xxx--7x7x7--7x7x7--7x7-7-------------|
a--------xxx-------xxx-------xxx-------xxx---x-x----x-x----x----------------|
E--------xxx-------xxx-------xxx-------xxx---x-x----x-x----x----------------|


e---------------------------------------------------------------------------|
b---------------------------------------------------------------------------|
g--8-----8----9------8------8-------9-------8-------8-------9---------------|
d--7-----7----7------7------7-------7-------7-------7-------7-----44---777--|
a-----------------------------------------------------------------33---666--|
E-----0-----0----------0------0-----------------0-------0---------22---555--|


e---------------------------------------------------------------------------|
b---------------------------------------------------------------------------|
g--8-----8----9------8------8-------9-------8-------8-------9---------------|
d--7-----7----7------7------7-------7-------7-------7-------7-----44---777--|
a-----------------------------------------------------------------33---666--|
E-----0-----0----------0------0-----------------0-------0---------22---555--|

solo

e---------------------------------------------------------------------------|
b---------------------------------------------------------------------------|
g--8-0-8-0-8-0-8-0-8-0-9-0-9-0-8-0-8-0-8-0-8-0-8-0-9-0-9--------------------|
d----------------------------------------------------------44---777---------|
a----------------------------------------------------------33---666---------|
E----------------------------------------------------------22---555---------|

e---------------------------------------------------------------------------|
b---------------------------------------------------------------------------|
g--19-0-19-0-19-0-19-0-19-0--20-0-20--19-0-19-0-19-0-19-0-19-0-20-0-20------|
d---------------------------------------------------------------------------|
a---------------------------------------------------------------------------|
E---------------------------------------------------------------------------|

e---------------|
b---------------|
g---------------|
d--44---777-----|
a--33---666-----|
E--22---555-----|

Chorus

e--5-3-0---5-3-0---5-3-0---5-3-0---5-3-0--------15------15------15------15--|
B------------------------------------------12h13---12h13---12h13---12h13----|
g---------------------------------------------------------------------------|
d---------------------------------------------------------------------------|
a---------------------------------------------------------------------------|
E---------------------------------------------------------------------------|

e-------15--0-1-3---0-3-5---0-1-3---0-3-5---0-1-3--------8------8-------|
b--12h13----------------------------------------------5h6---5h6----5h6--|
g-----------------------------------------------------------------------|
d-----------------------------------------------------------------------|
a-----------------------------------------------------------------------|
E-----------------------------------------------------------------------|

e-----10-----10--------|
b--6h8----6h8----6h8---|
g----------------------|
d----------------------| play  the whole thing twice
a----------------------|
E----------------------|


Outro
e----------------------------------------------------------------------|
b---------8---------5--------3-----------------8--------5--------------|
g------5---------5--------0-----------5-----5--------5-----------------|
d---7---------7--------2--------0--3-----7--------7--------777---------|
a----------------------------------------------------------555--555----|
E---------------------------------------------------------------333----|

e----------------------------------------------------------------------|
b---------8---------5--------3-----------------8--------5---------3----|
g------5---------5--------0-----------5-----5--------5-----------------|
d---7---------7--------2--------0--3-----7--------7--------------------|
a----------------------------------------------------------------------|
E----------------------------------------------------------------------|


well thats it... thats a  perfect tab if not perfect very close to it
comments
print report bad tab
11 comments total. Showing first comments.
0 reply
)Eric(Draven wrote on March 11 2006, 11:48 am

Perfect tab? Barely close. These are all over the place already anyway, most of which are perfect tabs. Go to the Fall of Troy forums, son.

0 reply
January Forever wrote on April 20 2006, 05:52 pm

its not really accurate dude.
check out mine

0 reply
remy2828 wrote on June 22 2006, 04:25 pm

not even close to perfect

dont be so cocky next time

I want to post or [tab]
guest
You may want to rate the tab now too:
select rating
Please do not post tabs as comments. Select "correction" instead!