Oops, an error
Loading. Please wait.

Fcpremix Tab

ver3
ver3

Intro

More versions @911Tabs.com
21,055 views 15 this week
6 commentsread comments
1 2 3 4 5
accurate
x 7
Autoscroll
+/-
esc
set tempo
stop
Contributor
WARNING: You are trying to view
                                    content from Ultimate-Guitar.com
                                    in an unauthorized application,
                                    which is prohibited.

                                    Please use an official Ultimate
                                    Guitar Tabs application for iPhone,
                                    iPad or Android to access legitimate
                                    chords, guitar, bass, and drum tabs
                                    from Ultimate-Guitar.com database.

                                    Type "ultimate guitar tabs" in Apple
                                    App Store's or Android Market's
                                    search to find the application.
Tabbed by ear by Brandon =) hope u guys like it cus i stayed up 1-5:30 am for this
7/12/06

(solo [echo effect] distortion off)
--------------------------------------------------------------------------------------|
-------------------------------------12b----------------------------------------------|
----12--9-----7--5-------12--9-----7-15b----------------------------------------------|
--10---7-7---5--3-3----10---7-7---5---------------------------------------------------|
12----8---8-7--5---5-12----8---8-7----------------------------------------------------|
--------------------------------------------------------------------------------------|

--------------------------------------------------------------------------------------|
-----------------------------------5--------------------------------------------------|
----12--9-----7--5-------12--9-----7--------------------------------------------------|
--10---7-7---5--3-3----10---7-7---5---------------------------------------------------|
12----8---8-7--5---5-12----8---8-7----------------------------------------------------|
--------------------------------------------------------------------------------------|
[verse distortion on]
--------------------------------------------------------------------------------------|
---------------------------------------------------------------------------(7)--------|
----12--9-----7--5-------12--9---------------12--9-----7--5-------12--9---------------|
--10---7-7---5--3-3----10---7-7--777-------10---7-7---5--3-3----10---7-7--7-----------|
12----8---8-7--5---5-12----8---8-555-555-12----8---8-7--5---5-12----8---8-5-----------|
-------------------------------------333----------------------------------------------|

--------------------------------------------------------------------------------------|
--------------------------------------------------------------------------------------|
----12--9-----7--5-------12--9---------------12--9-----7--5-------12--9---7~----------|
--10---7-7---5--3-3----10---7-7--777-------10---7-7---5--3-3----10---7-7--------------|
12----8---8-7--5---5-12----8---8-555-555-12----8---8-7--5---5-12----8---8-------------|
-------------------------------------333----------------------------------------------|

--------------------------------------------------------------------------------------|
--------------------------------------------------------------------------------------|
----12--9-----7--5-------12--9---------------12--9-----7--5-------12--9---------------|
--10---7-7---5--3-3----10---7-7--777-------10---7-7---5--3-3----10---7-7--------------|
12----8---8-7--5---5-12----8---8-555-555-12----8---8-7--5---5-12----8---8-------------|
-------------------------------------333----------------------------------------------|
[chorus]
----------------------------------------15-----15-----15-----15-----------------------|
-----------------------------------12p13--12p13--12p13--12p13-------------------------|
14-12--14-12--14-12--14-12--14-12----------------------------------12------12---------|
-----14-----14-----14-----14-----14----------------------------1415----1415-----------|
---------------------------------------------------------------------15------15-------|
--------------------------------------------------------------------------------------|

-------------------------151715--1715--1715--1715--------15-----15-----15-----15------|
----------------15----15-------17----17----17----17-12p13--12p13--12p13--12p13--------|
----17----17--------------------------------------------------------------------------|
1415--1415--1415--1415----------------------------------------------------------------|
--------------------------------------------------------------------------------------|
--------------------------------------------------------------------------------------|

--------------------------------------------------------------------------------------|
--------------------------------15----15----------------------------------------------|
----12------12------17----17----------------------------------------------------------|
1415----1415----1415--1415--1415--1415------------------------------------------------|
------15------15----------------------------------------------------------------------|
--------------------------------------------------------------------------------------|
[verse]
--------------------------------------------------------------------------------------|
--------------------------------------------------------------------------------------|
----12--9-----7--5-------12--9---------------12--9-----7--5-------12--9---------------|
--10---7-7---5--3-3----10---7-7--777-------10---7-7---5--3-3----10---7-7--7b----------|
12----8---8-7--5---5-12----8---8-555-555-12----8---8-7--5---5-12----8---8-5b----------|
-------------------------------------333----------------------------------------------|

--------------------------------------------------------------------------------------|
--------------------------------------------------------------------------------------|
----12--9-----7--5-------12--9---------------12--9-----7--5-------12--9---------------|
--10---7-7---5--3-3----10---7-7--777-------10---7-7---5--3-3----10---7-7--7b-5b-------|
12----8---8-7--5---5-12----8---8-555-555-12----8---8-7--5---5-12----8---8-5b-3b-------|
-------------------------------------333----------------------------------------------|

--------------------------------------------------------------------------------------|
--------------------------------------------------------------------------------------|
----12--9-----7--5-------12--9---------------12--9-----7--5-------12--9---------------|
--10---7-7---5--3-3----10---7-7--777-------10---7-7---5--3-3----10---7-7--------------|
12----8---8-7--5---5-12----8---8-555-555-12----8---8-7--5---5-12----8---8-------------|
-------------------------------------333----------------------------------------------|
[chorus]
----------------------------------------15-----15-----15-----15-----------------------|
-----------------------------------12p13--12p13--12p13--12p13-------------------------|
14-12--14-12--14-12--14-12--14-12----------------------------------12------12---------|
-----14-----14-----14-----14-----14----------------------------1415----1415-----------|
---------------------------------------------------------------------15------15-------|
--------------------------------------------------------------------------------------|

-------------------------151715--1715--1715--1715--------15-----15-----15-----15------|
----------------15----15-------17----17----17----17-12p13--12p13--12p13--12p13--------|
----17----17--------------------------------------------------------------------------|
1415--1415--1415--1415----------------------------------------------------------------|
--------------------------------------------------------------------------------------|
--------------------------------------------------------------------------------------|

--------------------------------------------------------------------------------------|
--------------------------------15----15----------------------------------------------|
----12------12------17----17----------------------------------------------------------|
1415----1415----1415--1415--1415--1415------------------------------------------------|
------15------15----------------------------------------------------------------------|
--------------------------------------------------------------------------------------|
(solo [echo effect]distortion off)
----------------------------------------------------------------------------------------|
----------------------------------------------------------------------------------------|
----14----17----14----17----12----12----------------------------------------------------|
--15----15----15----15----10----10------------------------------------------------------|
17----17----17----17----12----12--------------------------------------------------------|
----------------------------------------------------------------------------------------|
[bridge distortion on]
--------------------------------------------------------------------------------------|
-------------13------------------------------------13---------13----------------------|
-----------14--14----------------12--------------14--14-----14--14------12------------|
14151412-12------1212--12--121214--14-14151412-12------12-12------121214--14----------|
---------------------12--12-----------------------------------------------------------|
--------------------------------------------------------------------------------------|

--------------------------------------------------------------------------------------|
-------------13---------13--------------------------13--------------------------------|
-----------14--14-----14--14------12--------------14--14-----14-----------------------|
14151412-12------12-12------121214--14-14151412-12------12-12--7-7--------------------|
---------------------------------------------------------------5-5-7------------------|
-------------------------------------------------------------------5------------------|

--------------------------------------------------------------------------------------|
--------151718t-151718t--151718t-18t\-------------------------------------------------|
-------------------------------------1617t-1617t--------------------------------------|
14151412------------------------------------------------------------------------------|
--------------------------------------------------------------------------------------|
--------------------------------------------------------------------------------------|

---------------------------------------------------------------------xxxx-------------|
---------------------13----------------------------------------------xxxx-------------|
--5----------------14--14--------------------------------------------xxxx-------------|
07-7--------2-23212------12--12--------14--1415-13-13-13-13-13/14\13-xxxx-------------|
----5-3530-3-3-------------15--15-12-15--15-----0--0--0--0--0--0--0--xxxx-------------|
---------------------------------------------------------------------xxxx-------------|

--------xxxx---------xxxx---------xxxx------------------------------------------------|
--------xxxx---------xxxx---------xxxx------------------------------------------------|
--------xxxx---------xxxx---------xxxx------------------------------------------------|
13/14\13xxxx-13/14\13xxxx-13/14\13xxxx-13-13-14-13-13-14-13-13-14---------------------|
0--0--0-xxxx-0--0--0-xxxx-0--0--0-xxxx-0--0--0--0--0--0--0--0--0----------------------|
--------xxxx---------xxxx---------xxxx------------------------------------------------|

--------------------------------------------------------------------------------------|
--------------------------------------------------------------------------------------|
--------------------------------------------------------------------------------------|
13--13--14--13--13--14--13--13--14-------13--13--14--13--13--14--13--13--14-----------|
0-0-0-0-0---0-0-0-0-0---0-0-0-0-0--55-77-0-0-0-0-0---0-0-0-0-0-0-0-0-0-0-0--55-77-----|
-----------------------------------33-55------------------------------------33-55-----|

--------------------------------------------------------------------------------------|
--------------------------------------------------------------------------------------|
--------------------------------------------------------------------------------------|
14p1314p1314p1314p1314p1314p1314p1314p1314p1314p1314p1314p13--------------------------|
--------------------------------------------------------------------------------------|
--------------------------------------------------------------------------------------|

--------------------------------------------------------------------------------------|
18p1718p1718p1718p1719p1819p1818p1718p1718p1718p1719\---------------------------------|
--------------------------------------------------------------------------------------|
--------------------------------------------------------------------------------------|
--------------------------------------------------------------------------------------|
--------------------------------------------------------------------------------------|
[chorus]
----------------------------------------15-----15-----15-----15-----------------------|
-----------------------------------12p13--12p13--12p13--12p13-------------------------|
14-12--14-12--14-12--14-12--14-12----------------------------------12------12---------|
-----14-----14-----14-----14-----14----------------------------1415----1415-----------|
---------------------------------------------------------------------15------15-------|
--------------------------------------------------------------------------------------|

-------------------------151715--1715--1715--1715--------15-----15-----15b-15-1715----|
----------------15----15-------17----17----17----17-12p13--12p13--12p13-----------15--|
----17----17--------------------------------------------------------------------------|
1415--1415--1415--1415----------------------------------------------------------------|
--------------------------------------------------------------------------------------|
--------------------------------------------------------------------------------------|

--------------------------------------------------------------------------------------|
----------------15----15--------------------------------------------------------------|
----17----17--------------------------------------------------------------------------|
1415--1415--1415--1415----------------------------------------------------------------|
--------------------------------------------------------------------------------------|
--------------------------------------------------------------------------------------|
[outro]

--------------------------------------------------------------------------------------|
--------------------------------------------------------------------------------------|
----12--9-----7--5-------12--9---------------12--9-----7--5-------12--9---------------|
--10---7-7---5--3-3----10---7-7--777-------10---7-7---5--3-3----10---7-7--7-----------|
12----8---8-7--5---5-12----8---8-555-555-12----8---8-7--5---5-12----8---8-5-----------|
-------------------------------------333----------------------------------------------|
comments
print report bad tab
6 comments total. Showing first comments.
+1 reply
MCRrocks wrote on July 13 2006, 10:42 am

buddy,doyouhaveaspacebar?

0 reply
TheCrowing165 wrote on December 17 2007, 07:21 pm

damn dude nice tab. way better than the ohters

0 reply
puredarkness wrote on February 3 2008, 11:44 pm

OH MY GOD!!!!!!!!!!!!!!!!!!!!!!!!!!!!!!!!!!!!!!!!!!!!!!!!!!!
THATS SUM CRAZY CRAP

I want to post or [tab]
guest
You may want to rate the tab now too:
select rating
Please do not post tabs as comments. Select "correction" instead!