Oops, an error
Loading. Please wait.

Fcpremix Tab

ver4
ver4

Intro

Whole song

More versions @911Tabs.com
19,995 views 54 this week
7 commentsread comments
1 2 3 4 5
excellent!
x 13
Autoscroll
+/-
esc
set tempo
stop
Contributor
Difficulty
advanced
WARNING: You are trying to view
                                    content from Ultimate-Guitar.com
                                    in an unauthorized application,
                                    which is prohibited.

                                    Please use an official Ultimate
                                    Guitar Tabs application for iPhone,
                                    iPad or Android to access legitimate
                                    chords, guitar, bass, and drum tabs
                                    from Ultimate-Guitar.com database.

                                    Type "ultimate guitar tabs" in Apple
                                    App Store's or Android Market's
                                    search to find the application.
F.C.P.R.E.M.I.X.
As recorded by The Fall Of Troy
(From the 2005 Album DOPPLEGANGER)

Transcribed by Whoabot/Brendan December
        

Words and Music by T.F.O.T.
Arranged by T.F.O.T.

Gtr I (E A D G B E) - 'Clean Lead (Left)'
Gtr II (E A D G B E) - 'Clean Lead (Right)'
Gtr III (E A D G B E) - 'Clean Delay, also used as Overdub'
Gtr IV (E A D G B E) - 'Overdriven Lead'
Gtr V (E A D G B E) - 'Overdriven Delay'
Gtr VI (E A D G B E) - 'Overdrive for Volume Effect, also for Overdub'

 Mucho Delayo
  Q=175
  N.C.
 4/4
  Gtr I
   PM----------------------------------------------------------------------------------------------------|
   S   S   S   S   S        S        S       S        S        S       S      S      S      S      S      S
|----------------------------------------------------------------------------------------------------------------|
|----------------------------------------------------------------------------------------------------------------|
|-----------------12------(12)-----------------------------------------9-----(9)---------------------------------|
|---------10-(10)-------------------------------------7-------(7)--------------------7-----(7)-------------------|
|-12-(12)----------------------------8------(8)----------------------------------------------------8-----(8)-----|
|----------------------------------------------------------------------------------------------------------------|
|
| Gtr III
|                  PM----------------------------------------------------------------------------------------|
|  Q               T   T    T    T   T   T   T    T   T   T    T    T  T  T   T   T  T  T   T   T  T  T   T   T
|----------------------------------------------------------------------------------------------------------------|
|----------------------------------------------------------------------------------------------------------------|
|----------------------------------------------------12-(12)-(12)-(12)-----------------------------9-(9)--9--(9)-|
|-----------------------------------10-(10)-10--(10)---------------------------------7-(7)--7--(7)---------------|
|-----------------12-(12)--12--(12)------------------------------------8-(8)--8--(8)-----------------------------|
|----------------------------------------------------------------------------------------------------------------|


  PM------------------------------------------------------------------------------------------------------|
  S      S      S      S      S      S      S      S      S      S      S      S      S      S      S      S
|-----------------------------------------------------------------------------------------------------------------|
|-----------------------------------------------------------------------------------------------------------------|
|-----------------------------7-----(7)---------------------------------5-----(5)---------------------------------|
|---------------5-----(5)---------------------------------3-----(3)-------------------3-----(3)-------------------|
|-7-----(7)---------------------------------5-----(5)-----------------------------------------------5-----(5)-----|
|-----------------------------------------------------------------------------------------------------------------|
|
| PM----------------------------------------------------------------------------------------------------------|
| T  T   T   T  T  T   T   T  T  T   T   T  T  T   T   T  T  T   T   T  T  T   T   T  T  T   T   T  T  T   T   T
|-----------------------------------------------------------------------------------------------------------------|
|-----------------------------------------------------------------------------------------------------------------|
|---------------------------------------------------------7-(7)--7--(7)-----------------------------5-(5)--5--(5)-|
|-7-(7)--7--(7)-----------------------------5-(5)--5--(5)-----------------------------3-(3)--3--(3)---------------|
|---------------8-(8)--8--(8)-7-(7)--7--(7)-----------------------------5-(5)--5--(5)-----------------------------|
|-----------------------------------------------------------------------------------------------------------------|


   PM--------------------------------------------------------------------------------------------------------------------|
   S       S       S       S       S        S        S       S        S        S       S      S      S      S      S      S
|--------------------------------------------------------------------------------------------------------------------------------|
|--------------------------------------------------------------------------------------------------------------------------------|
|---------------------------------12------(12)-----------------------------------------9-----(9)---------------------------------|
|-----------------10-----(10)-----------------------------------------7-------(7)--------------------7-----(7)-------------------|
|-12-----(12)----------------------------------------8------(8)----------------------------------------------------8-----(8)-----|
|--------------------------------------------------------------------------------------------------------------------------------|
|
|  PM------------------------------------------------------------------------------------------------------------------------|
|  T  T    T   T   T  T    T   T   T   T    T    T   T   T   T    T   T   T    T    T  T  T   T   T  T  T   T   T  T  T   T   T
|--------------------------------------------------------------------------------------------------------------------------------|
|--------------------------------------------------------------------------------------------------------------------------------|
|--------------------------------------------------------------------12-(12)-(12)-(12)-----------------------------9-(9)--9--(9)-|
|--3-(3)---3--(3)-----------------------------------10-(10)-10--(10)---------------------------------7-(7)--7--(7)---------------|
|------------------5-(5)---5--(5)-12-(12)--12--(12)------------------------------------8-(8)--8--(8)-----------------------------|
|--------------------------------------------------------------------------------------------------------------------------------|


  E S E S E S  E.              +E        +E
|-----------------------------------------------------|
|-------------12b13===========(12)------(12)r---------|
|-------------16--------------(16)------(16)----------|
|-----------------------------------------------------|
|-7---7---7-------------------------------------------|
|-----------------------------------------------------|
|
| E S E S E E          E.           +E         +S
|-----------------------------------------------------|
|--------------------(12)b13=======(12)-------(12)r---|
|-7---7---7----------(16)----------(16)-------(16)----|
|-----------------------------------------------------|
|-----------------------------------------------------|
|-----------------------------------------------------|


  Gtrs I, II
   PM----------------------------------------------------------------------------------------------------|
   S   S   S   S   S        S        S       S        S        S       S      S      S      S      S      S
|----------------------------------------------------------------------------------------------------------------|
|----------------------------------------------------------------------------------------------------------------|
|-----------------12------(12)-----------------------------------------9-----(9)---------------------------------|
|---------10-(10)-------------------------------------7-------(7)--------------------7-----(7)-------------------|
|-12-(12)----------------------------8------(8)----------------------------------------------------8-----(8)-----|
|----------------------------------------------------------------------------------------------------------------|
|
|                  PM----------------------------------------------------------------------------------------|
|  Q               T   T    T    T   T   T   T    T   T   T    T    T  T  T   T   T  T  T   T   T  T  T   T   T
|----------------------------------------------------------------------------------------------------------------|
|----------------------------------------------------------------------------------------------------------------|
|----------------------------------------------------12-(12)-(12)-(12)-----------------------------9-(9)--9--(9)-|
|-----------------------------------10-(10)-10--(10)---------------------------------7-(7)--7--(7)---------------|
|-----------------12-(12)--12--(12)------------------------------------8-(8)--8--(8)-----------------------------|
|----------------------------------------------------------------------------------------------------------------|


  PM------------------------------------------------------------------------------------------------------|
  S      S      S      S      S      S      S      S      S      S      S      S      S      S      S      S
|-----------------------------------------------------------------------------------------------------------------|
|-----------------------------------------------------------------------------------------------------------------|
|-----------------------------7-----(7)---------------------------------5-----(5)---------------------------------|
|---------------5-----(5)---------------------------------3-----(3)-------------------3-----(3)-------------------|
|-7-----(7)---------------------------------5-----(5)-----------------------------------------------5-----(5)-----|
|-----------------------------------------------------------------------------------------------------------------|
|
| PM----------------------------------------------------------------------------------------------------------|
| T  T   T   T  T  T   T   T  T  T   T   T  T  T   T   T  T  T   T   T  T  T   T   T  T  T   T   T  T  T   T   T
|-----------------------------------------------------------------------------------------------------------------|
|-----------------------------------------------------------------------------------------------------------------|
|---------------------------------------------------------7-(7)--7--(7)-----------------------------5-(5)--5--(5)-|
|-7-(7)--7--(7)-----------------------------5-(5)--5--(5)-----------------------------3-(3)--3--(3)---------------|
|---------------8-(8)--8--(8)-7-(7)--7--(7)-----------------------------5-(5)--5--(5)-----------------------------|
|-----------------------------------------------------------------------------------------------------------------|


   PM--------------------------------------------------------------------------------------------------------------------|
   S       S       S       S       S        S        S       S        S        S       S      S      S      S      S      S
|--------------------------------------------------------------------------------------------------------------------------------|
|--------------------------------------------------------------------------------------------------------------------------------|
|---------------------------------12------(12)-----------------------------------------9-----(9)---------------------------------|
|-----------------10-----(10)-----------------------------------------7-------(7)--------------------7-----(7)-------------------|
|-12-----(12)----------------------------------------8------(8)----------------------------------------------------8-----(8)-----|
|--------------------------------------------------------------------------------------------------------------------------------|
|
|  PM------------------------------------------------------------------------------------------------------------------------|
|  T  T    T   T   T  T    T   T   T   T    T    T   T   T   T    T   T   T    T    T  T  T   T   T  T  T   T   T  T  T   T   T
|--------------------------------------------------------------------------------------------------------------------------------|
|--------------------------------------------------------------------------------------------------------------------------------|
|--------------------------------------------------------------------12-(12)-(12)-(12)-----------------------------9-(9)--9--(9)-|
|--3-(3)---3--(3)-----------------------------------10-(10)-10--(10)---------------------------------7-(7)--7--(7)---------------|
|------------------5-(5)---5--(5)-12-(12)--12--(12)------------------------------------8-(8)--8--(8)-----------------------------|
|--------------------------------------------------------------------------------------------------------------------------------|


  Dsus2/E
  Gtr IV
  W
|---------------||
|-5-------------||
|-7-------------||
|-x-------------||
|-7-------------||
|---------------||
|
| Gtr V
| S  S  +H..
|---------------||
|---(5)-(5)-----||
|---(7)-(7)-----||
|---(x)---------||
|---(7)-(7)-----||
|---------------||


  N.C.                                                              G5
                                                              |----3----|
   E  E  E E E E E E   E E E E E E E E    E  E  E E E E E E   q q q q q Q
|--------------------|-----------------|--------------------|-------------|
|--------------------|-----------------|--------------------|-------------|
|-------12-----9-----|-----7-----5-----|-------12-----9-----|-7-7-7-------|
|----10------7---7---|---5-----3---3---|----10------7---7---|-x-x-x-5-5-5-|
|-12-------8-------8-|-7-----5-------5S|=12-------8-------8-|-5-5-5-5-5-x-|
|--------------------|-----------------|--------------------|-------3-3-3-|


  N.C.
   E  E  E E E E E E   E E E E E E E E    E  E  E E E E E E   Q  Q    H
|--------------------|-----------------|--------------------|-------(<7>)----||
|--------------------|-----------------|--------------------|-------(<7>)----||
|-------12-----9-----|-----7-----5-----|-------12-----9-----|-7--------------||
|----10------7---7---|---5-----3---3---|----10------7---7---|----------------||
|-12-------8-------8-|-7-----5-------5S|=12-------8-------8-|----------------||
|--------------------|-----------------|--------------------|----------------||


 Verse
  N.C.
                                                              |----3----|
   E  E  E E E E E E   E E E E E E E E    E  E  E E E E E E   q q q q q Q
|--------------------|-----------------|--------------------|-------------|
|--------------------|-----------------|--------------------|-------------|
|-------12-----9-----|-----7-----5-----|-------12-----9-----|-7-7-7-------|
|----10------7---7---|---5-----3---3---|----10------7---7---|-x-x-x-5-5-5-|
|-12-------8-------8-|-7-----5-------5S|=12-------8-------8-|-5-5-5-x-x-x-|
|--------------------|-----------------|--------------------|-------3-3-3-|


                                                              ~~
   E  E  E E E E E E   E E E E E E E E    E  E  E E E E E E   H.      +Q
|--------------------|-----------------|--------------------|---------------||
|--------------------|-----------------|--------------------|---------------||
|-------12-----9-----|-----7-----5-----|-------12-----9-----|-7-------(7)\--||
|----10------7---7---|---5-----3---3---|----10------7---7---|---------------||
|-12-------8-------8-|-7-----5-------5S|=12-------8-------8-|---------------||
|--------------------|-----------------|--------------------|---------------||


 2/2
                                                              |----3----|
   E  E  E E E E E E   E E E E E E E E    E  E  E E E E E E   q q q q q Q
|--------------------|-----------------|--------------------|--------------|
|--------------------|-----------------|--------------------|--------------|
|-------12-----9-----|-----7-----5-----|-------12-----9-----|-7-7-7--------|
|----10------7---7---|---5-----3---3---|----10------7---7---|-x-x-x-5-5-5--|
|-12-------8-------8-|-7-----5-------5S|=12-------8-------8-|-5-5-5-x-x-x--|
|--------------------|-----------------|--------------------|-------3-3-3--|


                                                              Em
                                                              PM----|
   E  E  E E E E E E   E E E E E E E E    E  E  E E E E E E   e e e e E E E E
|--------------------|-----------------|--------------------|-----------------||
|--------------------|-----------------|--------------------|-----------------||
|-------12-----9-----|-----7-----5-----|-------12-----9-----|---------7-7-7-7-||
|----10------7---7---|---5-----3---3---|----10------7---7---|-5-5-5-5-5-5-5-5-||
|-12-------8-------8-|-7-----5-------5S|=12-------8-------8-|-7-7-7-7-7-7-7-7-||
|--------------------|-----------------|--------------------|-----------------||


 Chorus
  Asus2
   E   E   E    E    E    E    E    E      E    E      E      E    E    E    E    E
|--------------------------------------|---------------------------------------------|
|--------------------------------------|---------------------------------------------|
|-14p=12-------14p==12--------14p==12--|-------14p====12----------14p==12--------14--|
|---------14-------------14------------|--14-----------------14-------------14-------|
|--------------------------------------|---------------------------------------------|
|--------------------------------------|---------------------------------------------|
|
| Gtr V
|  Q       E    E    E    E    E    E      E    E      E      E    E    E    E    E
|--------------------------------------|---------------------------------------------|
|--------------------------------------|---------------------------------------------|
|--------(14)p(12)------(14)p(12)------|-(14)p(12)----------(14)p(12)------(14)p(12)-|
|------------------(14)-----------(14)-|-------------(14)-------------(14)-----------|
|--------------------------------------|---------------------------------------------|
|--------------------------------------|---------------------------------------------|
|
| Gtr III
|                                          |------3-------|
|  H                 H                     Q       Q      Q        Q         Q
|--------------------0-----------------|---------------------------------------------|
|-(0)----------------0-----------------|---------------------------0-----------------|
|--2-----------------2-----------------|------------------2--------2-----------------|
|--2-----------------2-----------------|-----------2---------------------------------|
|--0-----------------0-----------------|---0---------------------------------0-------|
|--------------------------------------|---------------------------------------------|


  C                                         Cadd9
    E    E    E    E    E    E    E    E      E    E    E    E    E    E      E      E
|------------15-------------15------------|--15-------------15---------------15---------|
|--12h==13--------12h==13--------12h==13--|-------12h==13--------12h==13------------13--|
|-----------------------------------------|---------------------------------------------|
|-----------------------------------------|---------------------------------------------|
|-----------------------------------------|---------------------------------------------|
|-----------------------------------------|---------------------------------------------|
|
|   E    E    E    E    E    E    E    E      E    E    E    E    E    E      E      E
|---------------------(15)-----------(15)-|-----------(15)-----------(15)---------------|
|-----------(12)h(13)------(12)h(13)------|-(12)h(13)------(12)h(13)--------(12)h==(13)-|
|------(14)-------------------------------|---------------------------------------------|
|-(14)------------------------------------|---------------------------------------------|
|-----------------------------------------|---------------------------------------------|
|-----------------------------------------|---------------------------------------------|
|
|                                                                 |------3-------|
|   E    E    E    E    H                     E    E    E    E    Q       Q      Q
|-----------------------------------------|---------------------------------------------|
|-----------------------1-----------------|-------------3---------3---------------------|
|-------------0---------0-----------------|-------------0-----------------0-------------|
|--------2---------2----3-----------------|--------2---------2-------------------2------|
|---3-------------------------------------|---3-----------------------------------------|
|-----------------------------------------|---------------------------------------------|


  F
    E    E      E      E    E    E    E    E      E    E      E      E    E    E    E    E
|---------------------------------------------|---------------------------------------------|
|---------------------------------------------|---------------------------------------------|
|---9h==10-----12-----------9h==10---12-------|---9h==10-----12-----------9h==10---12-------|
|---------------------10------------------10--|---------------------10------------------10--|
|---------------------------------------------|---------------------------------------------|
|---------------------------------------------|---------------------------------------------|
|
|   E    E      E      E    E    E    E    E      E    E      E      E    E    E    E    E
|-(15)----------------------------------------|---------------------------------------------|
|------(13)-----------------------------------|---------------------------------------------|
|-------------------------(12)----------------|-(12)--------------------(12)----------------|
|-------------(14)h==(15)-----------(14)h(15)-|-------------(14)h==(15)-----------(14)h(15)-|
|------------------------------(15)-----------|------(15)--------------------(15)-----------|
|---------------------------------------------|---------------------------------------------|
|
|   |------3-------|                              |------3-------|
|   Q       Q      Q        H                     Q       Q      Q        H
|---------------------------------------------|---------------------------------------------|
|---------------------------------------------|---------------------------------------------|
|---------------------------2-----------------|---------------------------2-----------------|
|-----------3---------------3-----------------|-----------3---------------3-----------------|
|-----------0---------------------------------|-----------0---------------------------------|
|---1--------------1--------------------------|---1--------------1--------------------------|


  Cadd9                                     G
    E    E    E    E    E    E    E    E      E    E    E    E    E    E      E      E
|-----------------------------------------|-----------------------------------------15--|
|------------13-------------13--------13--|------------15--------15----------17---------|
|---9h==10---------9h==10---------9-------|--10h==12--------12--------12----------------|
|-----------------------------------------|---------------------------------------------|
|-----------------------------------------|---------------------------------------------|
|-----------------------------------------|---------------------------------------------|
|
|   E    E    E    E    E    E    E    E      E    E    E    E    E    E      E      E
|-----------------------------------------|---------------------------------------------|
|-----------------------------------------|----------------------------------------(17)-|
|-(12)----------------(17)-----------(17)-|------(17)-----------(19)--------(19)--------|
|-----------(14)h(15)------(14)h(15)------|-(14)------(15)h(17)------(17)---------------|
|------(15)-------------------------------|---------------------------------------------|
|-----------------------------------------|---------------------------------------------|
|
|                                                                 |------3-------|
|   E    E    E    E    Q         E    E      E    E    E    E    Q       Q      Q
|-----------------------------------------|---------------------------------------------|
|-------------3---------3---------3----3--|-------------3---------3-------3------3------|
|-------------0-------------------0----0--|--------0--------------0-------0------0------|
|--------2---------2--------------2----2--|---0--------------0--------------------------|
|---3-------------------------------------|---------------------------------------------|
|-----------------------------------------|---------------------------------------------|


  Asus2
   E   E   E    E    E    E    E    E      E    E      E      E    E    E    E   +E
|-17--15-------17---15--------17---15--|-------17-----15----------17---15------------|
|---------17-------------17------------|--17-----------------17-------------17--(17)S|
|--------------------------------------|---------------------------------------------|
|--------------------------------------|---------------------------------------------|
|--------------------------------------|---------------------------------------------|
|--------------------------------------|---------------------------------------------|
|
| Gtr V
|  Q       E    E    E    E    E    E      E    E      E      E    E    E    E    E
|--------(17)-(15)------(17)-(15)------|-(17)-(15)----------(17)-(15)------(17)-(15)-|
|------------------(17)-----------(17)-|-------------(17)-------------(17)-----------|
|--------------------------------------|---------------------------------------------|
|--------------------------------------|---------------------------------------------|
|--------------------------------------|---------------------------------------------|
|--------------------------------------|---------------------------------------------|
|
| Gtr III
|                                          |------3-------|
|  H                 H                     Q       Q      Q        Q         Q
|--------------------0-----------------|---------------------------------------------|
|-(0)----------------0-----------------|---------------------------0-----------------|
|--2-----------------2-----------------|------------------2--------2-----------------|
|--2-----------------2-----------------|-----------2---------------------------------|
|--0-----------------0-----------------|---0---------------------------------0-------|
|--------------------------------------|---------------------------------------------|


  C                                         Cadd9
    E    E    E    E    E    E    E    E      E    E    E    E    E    E      E      E
|------------15-------------15------------|--15-------------15---------------15---------|
|--12h==13--------12h==13--------12h==13--|-------12h==13--------12h==13------------13--|
|-----------------------------------------|---------------------------------------------|
|-----------------------------------------|---------------------------------------------|
|-----------------------------------------|---------------------------------------------|
|-----------------------------------------|---------------------------------------------|
|
|   E   +E    E    E    E    E    E    E      E    E    E    E    E    E      E      E
|---------------------(15)-----------(15)-|-----------(15)-----------(15)---------------|
|-(17)-(17)S(12)h(13)------(12)h(13)------|-(12)h(13)------(12)h(13)--------(12)h==(13)-|
|-----------------------------------------|---------------------------------------------|
|-----------------------------------------|---------------------------------------------|
|-----------------------------------------|---------------------------------------------|
|-----------------------------------------|---------------------------------------------|
|
|                                                                 |------3-------|
|   E    E    E    E    H                     E    E    E    E    Q       Q      Q
|-----------------------------------------|---------------------------------------------|
|-----------------------1-----------------|-------------3---------3---------------------|
|-------------0---------0-----------------|-------------0-----------------0-------------|
|--------2---------2----3-----------------|--------2---------2-------------------2------|
|---3-------------------------------------|---3-----------------------------------------|
|-----------------------------------------|---------------------------------------------|


  F
    E    E      E      E    E    E    E    E      E    E      E      E    E    E    E    E
|---------------------------------------------|---------------------------------------------|
|---------------------------------------------|---------------------------------------------|
|--------------12--------------------12-------|--------------12--------------------12-------|
|--14h==15-----------------14h==15------------|--14h==15-----------------14h==15------------|
|---------------------15------------------15--|---------------------15------------------15--|
|---------------------------------------------|---------------------------------------------|
|
|   E    E      E      E    E    E    E    E      E    E      E      E    E    E    E    E
|-(15)----------------------------------------|---------------------------------------------|
|------(13)-----------------------------------|---------------------------------------------|
|-------------------------(12)----------------|-(12)--------------------(12)----------------|
|-------------(14)h==(15)-----------(14)h(15)-|-------------(14)h==(15)-----------(14)h(15)-|
|------------------------------(15)-----------|------(15)--------------------(15)-----------|
|---------------------------------------------|---------------------------------------------|
|
|   |------3-------|                              |------3-------|
|   Q       Q      Q        H                     Q       Q      Q        H
|---------------------------------------------|---------------------------------------------|
|---------------------------------------------|---------------------------------------------|
|---------------------------2-----------------|---------------------------2-----------------|
|-----------3---------------3-----------------|-----------3---------------3-----------------|
|-----------0---------------------------------|-----------0---------------------------------|
|---1--------------1--------------------------|---1--------------1--------------------------|


  Cadd9
    E    E    E    E    E    E    E    E      E    E    E    E    E    E    Q
|-----------------------------------------|------------------------------------------||
|-----------------------------------------|------------------------------------------||
|------------17-------------17--------17--|------------19--------19--------19\-------||
|--14h==15--------14h==15--------14-------|--15h==17--------17--------17-------------||
|-----------------------------------------|------------------------------------------||
|-----------------------------------------|------------------------------------------||
|
|   E    E    E    E    E    E    E    E      E    E    E    E    E    E    E     E
|-----------------------------------------|------------------------------------------||
|-----------------------------------------|------------------------------------------||
|-(12)----------------(17)-----------(17)-|------(17)-----------(19)------(19)-------||
|-----------(14)h(15)------(14)h(15)------|-(14)------(15)h(17)------(17)-------(17)-||
|------(15)-------------------------------|------------------------------------------||
|-----------------------------------------|------------------------------------------||
|
|   E    E    E    E    Q         E    E      E    E    E    E    Q        +Q
|-----------------------------------------|------------------------------------------||
|-------------3---------3---------3----3--|-------------3---------4--------(4)\------||
|-------------0-------------------0----0--|--------2--------------7--------(7)\------||
|--------2---------2--------------2----2--|---0--------------0-----------------------||
|---3-------------------------------------|------------------------------------------||
|-----------------------------------------|------------------------------------------||


 Pre-Verse
  N.C.
 4/4
                                                              |----3----|
   E  E  E E E E E E   E E E E E E E E    E  E  E E E E E E   q q q q q Q
|--------------------|-----------------|--------------------|--------------|
|--------------------|-----------------|--------------------|--------------|
|-------12-----9-----|-----7-----5-----|-------12-----9-----|-7-7-7--------|
|----10------7---7---|---5-----3---3---|----10------7---7---|-x-x-x-5-5-5--|
|-12-------8-------8-|-7-----5-------5S|=12-------8-------8-|-5-5-5-x-x-x--|
|--------------------|-----------------|--------------------|-------3-3-3--|


   E  E  E E E E E E   E E E E E E E E    E  E  E E E E E E   H      +H
|--------------------|-----------------|--------------------|---------------||
|--------------------|-----------------|--------------------|-5------(5)----||
|-------12-----9-----|-----7-----5-----|-------12-----9-----|-x-------------||
|----10------7---7---|---5-----3---3---|----10------7---7---|-5------(5)----||
|-12-------8-------8-|-7-----5-------5S|=12-------8-------8-|-5b6r===(5)----||
|--------------------|-----------------|--------------------|---------------||


 Verse
  N.C.
                                                              |----3----|
   E  E  E E E E E E   E E E E E E E E    E  E  E E E E E E   q q q q q Q
|--------------------|-----------------|--------------------|-------------|
|--------------------|-----------------|--------------------|-------------|
|-------12-----9-----|-----7-----5-----|-------12-----9-----|-7-7-7-------|
|----10------7---7---|---5-----3---3---|----10------7---7---|-x-x-x-5-5-5-|
|-12-------8-------8-|-7-----5-------5S|=12-------8-------8-|-5-5-5-x-x-x-|
|--------------------|-----------------|--------------------|-------3-3-3-|


   E  E  E E E E E E   E E E E E E E E    E  E  E E E E E E   H     H
|--------------------|-----------------|--------------------|------------|
|--------------------|-----------------|--------------------|------------|
|-------12-----9-----|-----7-----5-----|-------12-----9-----|-7-----9----|
|----10------7---7---|---5-----3---3---|----10------7---7---|------------|
|-12-------8-------8-|-7-----5-------5S|=12-------8-------8-|------------|
|--------------------|-----------------|--------------------|------------|
|
| Gtr V
|  W                   W                  W                   H     H
|--------------------|-----------------|--------------------|------------|
|--------------------|-----------------|--------------------|------------|
|--------------------|-----------------|--------------------|------------|
|--------------------|-----------------|--------------------|-9----10----|
|--------------------|-----------------|--------------------|------------|
|--------------------|-----------------|--------------------|------------|


 2/2
                                                              |----3----|
   E  E  E E E E E E   E E E E E E E E    E  E  E E E E E E   q q q q q Q
|--------------------|-----------------|--------------------|--------------|
|--------------------|-----------------|--------------------|--------------|
|-------12-----9-----|-----7-----5-----|-------12-----9-----|-7-7-7--------|
|----10------7---7---|---5-----3---3---|----10------7---7---|-x-x-x-5-5-5--|
|-12-------8-------8-|-7-----5-------5S|=12-------8-------8-|-5-5-5-x-x-x--|
|--------------------|-----------------|--------------------|-------3-3-3--|


                                                              Em
                                                              PM----|
   E  E  E E E E E E   E E E E E E E E    E  E  E E E E E E   e e e e E E E E
|--------------------|-----------------|--------------------|-----------------||
|--------------------|-----------------|--------------------|-----------------||
|-------12-----9-----|-----7-----5-----|-------12-----9-----|---------7-7-7-7-||
|----10------7---7---|---5-----3---3---|----10------7---7---|-5-5-5-5-5-5-5-5-||
|-12-------8-------8-|-7-----5-------5S|=12-------8-------8-|-7-7-7-7-7-7-7-7-||
|--------------------|-----------------|--------------------|-----------------||


 Chorus
  Asus2
   E   E   E    E    E    E    E    E      E    E      E      E    E    E    E    E
|--------------------------------------|---------------------------------------------|
|--------------------------------------|---------------------------------------------|
|-14p=12-------14p==12--------14p==12--|-------14p====12----------14p==12--------14--|
|---------14-------------14------------|--14-----------------14-------------14-------|
|--------------------------------------|---------------------------------------------|
|--------------------------------------|---------------------------------------------|
|
| Gtr V
|  Q       E    E    E    E    E    E      E    E      E      E    E    E    E    E
|--------------------------------------|---------------------------------------------|
|--------------------------------------|---------------------------------------------|
|--------(14)p(12)------(14)p(12)------|-(14)p(12)----------(14)p(12)------(14)p(12)-|
|------------------(14)-----------(14)-|-------------(14)-------------(14)-----------|
|--------------------------------------|---------------------------------------------|
|--------------------------------------|---------------------------------------------|
|
| Gtr III
|                                          |------3-------|
|  H                 H                     Q       Q      Q        Q         Q
|--------------------0-----------------|---------------------------------------------|
|-(0)----------------0-----------------|---------------------------0-----------------|
|--2-----------------2-----------------|------------------2--------2-----------------|
|--2-----------------2-----------------|-----------2---------------------------------|
|--0-----------------0-----------------|---0---------------------------------0-------|
|--------------------------------------|---------------------------------------------|


  C                                         Cadd9
    E    E    E    E    E    E    E    E      E    E    E    E    E    E      E      E
|------------15-------------15------------|--15-------------15---------------15---------|
|--12h==13--------12h==13--------12h==13--|-------12h==13--------12h==13------------13--|
|-----------------------------------------|---------------------------------------------|
|-----------------------------------------|---------------------------------------------|
|-----------------------------------------|---------------------------------------------|
|-----------------------------------------|---------------------------------------------|
|
|   E    E    E    E    E    E    E    E      E    E    E    E    E    E      E      E
|---------------------(15)-----------(15)-|-----------(15)-----------(15)---------------|
|-----------(12)h(13)------(12)h(13)------|-(12)h(13)------(12)h(13)--------(12)h==(13)-|
|------(14)-------------------------------|---------------------------------------------|
|-(14)------------------------------------|---------------------------------------------|
|-----------------------------------------|---------------------------------------------|
|-----------------------------------------|---------------------------------------------|
|
|                                                                 |------3-------|
|   E    E    E    E    H                     E    E    E    E    Q       Q      Q
|-----------------------------------------|---------------------------------------------|
|-----------------------1-----------------|-------------3---------3---------------------|
|-------------0---------0-----------------|-------------0-----------------0-------------|
|--------2---------2----3-----------------|--------2---------2-------------------2------|
|---3-------------------------------------|---3-----------------------------------------|
|-----------------------------------------|---------------------------------------------|


  F
    E    E      E      E    E    E    E    E      E    E      E      E    E    E    E    E
|---------------------------------------------|---------------------------------------------|
|---------------------------------------------|---------------------------------------------|
|---9h==10-----12-----------9h==10---12-------|---9h==10-----12-----------9h==10---12-------|
|---------------------10------------------10--|---------------------10------------------10--|
|---------------------------------------------|---------------------------------------------|
|---------------------------------------------|---------------------------------------------|
|
|   E    E      E      E    E    E    E    E      E    E      E      E    E    E    E    E
|-(15)----------------------------------------|---------------------------------------------|
|------(13)-----------------------------------|---------------------------------------------|
|-------------------------(12)----------------|-(12)--------------------(12)----------------|
|-------------(14)h==(15)-----------(14)h(15)-|-------------(14)h==(15)-----------(14)h(15)-|
|------------------------------(15)-----------|------(15)--------------------(15)-----------|
|---------------------------------------------|---------------------------------------------|
|
|   |------3-------|                              |------3-------|
|   Q       Q      Q        H                     Q       Q      Q        H
|---------------------------------------------|---------------------------------------------|
|---------------------------------------------|---------------------------------------------|
|---------------------------2-----------------|---------------------------2-----------------|
|-----------3---------------3-----------------|-----------3---------------3-----------------|
|-----------0---------------------------------|-----------0---------------------------------|
|---1--------------1--------------------------|---1--------------1--------------------------|


  Cadd9                                     G
    E    E    E    E    E    E    E    E      E    E    E    E    E    E      E      E
|-----------------------------------------|-----------------------------------------15--|
|------------13-------------13--------13--|------------15--------15----------17---------|
|---9h==10---------9h==10---------9-------|--10h==12--------12--------12----------------|
|-----------------------------------------|---------------------------------------------|
|-----------------------------------------|---------------------------------------------|
|-----------------------------------------|---------------------------------------------|
|
|   E    E    E    E    E    E    E    E      E    E    E    E    E    E      E      E
|-----------------------------------------|---------------------------------------------|
|-----------------------------------------|----------------------------------------(17)-|
|-(12)----------------(17)-----------(17)-|------(17)-----------(19)--------(19)--------|
|-----------(14)h(15)------(14)h(15)------|-(14)------(15)h(17)------(17)---------------|
|------(15)-------------------------------|---------------------------------------------|
|-----------------------------------------|---------------------------------------------|
|
|                                                                 |------3-------|
|   E    E    E    E    Q         E    E      E    E    E    E    Q       Q      Q
|-----------------------------------------|---------------------------------------------|
|-------------3---------3---------3----3--|-------------3---------3-------3------3------|
|-------------0-------------------0----0--|--------0--------------0-------0------0------|
|--------2---------2--------------2----2--|---0--------------0--------------------------|
|---3-------------------------------------|---------------------------------------------|
|-----------------------------------------|---------------------------------------------|


  Asus2
   E   E   E    E    E    E    E    E      E    E      E      E    E    E    E   +E
|-17--15-------17---15--------17---15--|-------17-----15----------17---15------------|
|---------17-------------17------------|--17-----------------17-------------17--(17)S|
|--------------------------------------|---------------------------------------------|
|--------------------------------------|---------------------------------------------|
|--------------------------------------|---------------------------------------------|
|--------------------------------------|---------------------------------------------|
|
|  Q       E    E    E    E    E    E      E    E      E      E    E    E    E    E
|--------(17)-(15)------(17)-(15)------|-(17)-(15)----------(17)-(15)------(17)-(15)-|
|------------------(17)-----------(17)-|-------------(17)-------------(17)-----------|
|--------------------------------------|---------------------------------------------|
|--------------------------------------|---------------------------------------------|
|--------------------------------------|---------------------------------------------|
|--------------------------------------|---------------------------------------------|
|
|                                          |------3-------|
|  H                 H                     Q       Q      Q        Q         Q
|--------------------0-----------------|---------------------------------------------|
|-(0)----------------0-----------------|---------------------------0-----------------|
|--2-----------------2-----------------|------------------2--------2-----------------|
|--2-----------------2-----------------|-----------2---------------------------------|
|--0-----------------0-----------------|---0---------------------------------0-------|
|--------------------------------------|---------------------------------------------|


  C                                         Cadd9
    E    E    E    E    E    E    E    E      E    E    E    E    E    E      E      E
|------------15-------------15------------|--15-------------15---------------15---------|
|--12h==13--------12h==13--------12h==13--|-------12h==13--------12h==13------------13--|
|-----------------------------------------|---------------------------------------------|
|-----------------------------------------|---------------------------------------------|
|-----------------------------------------|---------------------------------------------|
|-----------------------------------------|---------------------------------------------|
|
|   E   +E    E    E    E    E    E    E      E    E    E    E    E    E      E      E
|---------------------(15)-----------(15)-|-----------(15)-----------(15)---------------|
|-(17)-(17)S(12)h(13)------(12)h(13)------|-(12)h(13)------(12)h(13)--------(12)h==(13)-|
|-----------------------------------------|---------------------------------------------|
|-----------------------------------------|---------------------------------------------|
|-----------------------------------------|---------------------------------------------|
|-----------------------------------------|---------------------------------------------|
|
|                                                                 |------3-------|
|   E    E    E    E    H                     E    E    E    E    Q       Q      Q
|-----------------------------------------|---------------------------------------------|
|-----------------------1-----------------|-------------3---------3---------------------|
|-------------0---------0-----------------|-------------0-----------------0-------------|
|--------2---------2----3-----------------|--------2---------2-------------------2------|
|---3-------------------------------------|---3-----------------------------------------|
|-----------------------------------------|---------------------------------------------|


  F
    E    E      E      E    E    E    E    E      E    E      E      E    E    E    E    E
|---------------------------------------------|---------------------------------------------|
|---------------------------------------------|---------------------------------------------|
|--------------12--------------------12-------|--------------12--------------------12-------|
|--14h==15-----------------14h==15------------|--14h==15-----------------14h==15------------|
|---------------------15------------------15--|---------------------15------------------15--|
|---------------------------------------------|---------------------------------------------|
|
|   E    E      E      E    E    E    E    E      E    E      E      E    E    E    E    E
|-(15)----------------------------------------|---------------------------------------------|
|------(13)-----------------------------------|---------------------------------------------|
|-------------------------(12)----------------|-(12)--------------------(12)----------------|
|-------------(14)h==(15)-----------(14)h(15)-|-------------(14)h==(15)-----------(14)h(15)-|
|------------------------------(15)-----------|------(15)--------------------(15)-----------|
|---------------------------------------------|---------------------------------------------|
|
|   |------3-------|                              |------3-------|
|   Q       Q      Q        H                     Q       Q      Q        H
|---------------------------------------------|---------------------------------------------|
|---------------------------------------------|---------------------------------------------|
|---------------------------2-----------------|---------------------------2-----------------|
|-----------3---------------3-----------------|-----------3---------------3-----------------|
|-----------0---------------------------------|-----------0---------------------------------|
|---1--------------1--------------------------|---1--------------1--------------------------|


  Cadd9
    E    E    E    E    E    E    E    E      E      E    E    E    E    E    Q
|-----------------------------------------|-------------------------------------------||
|-----------------------------------------|-------------------------------------------||
|------------17-------------17--------17--|--------------19--------19--------19\------||
|--14h==15--------14h==15--------14-------|--15h====17--------17--------17------------||
|-----------------------------------------|-------------------------------------------||
|-----------------------------------------|-------------------------------------------||
|
|   E    E    E    E    E    E    E    E      E      E    E    E    E    E    E    E
|-----------------------------------------|-------------------------------------------||
|-----------------------------------------|-------------------------------------------||
|-(12)----------------(17)-----------(17)-|--------(17)-----------(19)------(19)------||
|-----------(14)h(15)------(14)h(15)------|-(14)--------(15)h(17)------(17)------(17)-||
|------(15)-------------------------------|-------------------------------------------||
|-----------------------------------------|-------------------------------------------||
|
|                                           Gtr VI
|   E    E    E    E    Q         E    E      H.                             +Q
|-----------------------------------------|--15b17--------------------------(15)------||
|-------------3---------3---------3----3--|-------------------------------------------||
|-------------0-------------------0----0--|-------------------------------------------||
|--------2---------2--------------2----2--|-------------------------------------------||
|---3-------------------------------------|-------------------------------------------||
|-----------------------------------------|-------------------------------------------||


 Breakdown
  N.C.
 3/4
    PM------------------------------------------------------------------------------------------
    E           E               E               E               E               E
|----------------------------------------------------------------------------------------------|
|------------------------------10------------------------------13--------------10--------------|
|--------------10------------------------------10----------------------------------------------|
|--12------------------------------------------------------------------------------------------|
|----------------------------------------------------------------------------------------------|
|----------------------------------------------------------------------------------------------|
|
|       PM--------------------------------------------------------------------------------------
|   S   T   T   T   T   T   T   T   T   T   T   T   T   T   T   T   T   T   T   T   T   T   T
|----------------------------------------------------------------------------------------------|
|--------------------------------------10-(10)-10-(10)-----------------13-(13)-13-(13)-10-(10)-|
|----------------------10-(10)-10-(10)-----------------10-(10)-10-(10)-------------------------|
|------12-(12)-12-(12)-------------------------------------------------------------------------|
|----------------------------------------------------------------------------------------------|
|----------------------------------------------------------------------------------------------|
|
|   >
|  +H.
|-(15)-----------------------------------------------------------------------------------------|
|----------------------------------------------------------------------------------------------|
|----------------------------------------------------------------------------------------------|
|----------------------------------------------------------------------------------------------|
|----------------------------------------------------------------------------------------------|
|----------------------------------------------------------------------------------------------|


 ----------------------------------------------------------------------------------|
   E                E               E               E               E               E
|---------------------------------------------------------------------------------------------------|
|----------------------------------10------------------------------13--------------10---------------|
|------------------10------------------------------10-----------------------------------------------|
|-12------------------------------------------------------------------------------------------------|
|---------------------------------------------------------------------------------------------------|
|---------------------------------------------------------------------------------------------------|
|
|---------------------------------------------------------------------------------------------|
|  T    T   T   T   T   T   T   T   T   T   T   T   T   T   T   T   T   T   T   T   T   T   T   T
|---------------------------------------------------------------------------------------------------|
|-10--(10)---------------------------------10-(10)-10-(10)-----------------13-(13)-13-(13)-10-(10)--|
|--------------------------10-(10)-10-(10)-----------------10-(10)-10-(10)--------------------------|
|----------12-(12)-12-(12)--------------------------------------------------------------------------|
|---------------------------------------------------------------------------------------------------|
|---------------------------------------------------------------------------------------------------|
|
|  H.
|---------------------------------------------------------------------------------------------------|
|---------------------------------------------------------------------------------------------------|
|---------------------------------------------------------------------------------------------------|
|---------------------------------------------------------------------------------------------------|
|---------------------------------------------------------------------------------------------------|
|---------------------------------------------------------------------------------------------------|


   PM------------------------------------------------------------------------|
   E               E               E             E              E             E
|------------------------------------------------------------------------------------------|
|------------------------------------------------------------------------------------------|
|----------------------------------9---------------------------12--------------------------|
|-----------------10----------------------------10---------------------------10------------|
|-12---------------------------------------------------------------------------------------|
|------------------------------------------------------------------------------------------|
|
|  PM---------------------------------------------------------------------------------|
|  T   T   T   T   T   T   T   T   T   T  T  T   T  T   T   T   T   T   T  T  T  T  T   T
|------------------------------------------------------------------------------------------|
|-10-(10)----------------------------------------------------------------------------------|
|-----------------------------------------9-(9)--9-(9)-----------------12-12-12-12---------|
|-------------------------10-(10)-10-(10)--------------10-(10)-10-(10)-------------10-(10)-|
|---------12-(12)-12-(12)------------------------------------------------------------------|
|------------------------------------------------------------------------------------------|


 3/8
   E  E  S   S
|---------------|
|---------------|
|---------------|
|-14h15-14h(15)-|
|---------------|
|---------------|
|
|  Q.
|---------------|
|---------------|
|---------------|
|---------------|
|---------------|
|---------------|


   3/4
     E   E    E    E    E    E      E    E    E    E    E    E
||------------------------------|-------------------------------|
||o----------10--------13---10--|------------10--------13---10--|
||------10--------10------------|-------10--------10------------|
||--12--------------------------|--12---------------------------|
||o-----------------------------|-------------------------------|
||------------------------------|-------------------------------|
|
|    E   E    E    E    E    E      E    E    E    E    E    E
||------------------------------|-------------------------------|
||o--------------(10)------(13)-|-(10)-----------(10)------(13)-|
||----------(10)------(10)------|-----------(10)------(10)------|
||-----(12)---------------------|------(12)---------------------|
||o-----------------------------|-------------------------------|
||------------------------------|-------------------------------|


                                3/8
    E    E    E   E    E    E      E    E    S    S
|------------------------------|----------------------||
|------------------------------|---------------------o||
|-------------9-------12-------|----------------------||
|-------10-------10--------10--|--14h==15---14h=(15)--||
|--12--------------------------|---------------------o||
|------------------------------|----------------------||
|
|   E    E    E   E    E    E      E    E    E
|------------------------------|----------------------||
|-(10)-------------------------|---------------------o||
|----------------(9)------(12)-|----------------------||
|-----------(10)-----(10)------|-(10)-(14)h(15)-------||
|------(12)--------------------|---------------------o||
|------------------------------|----------------------||


 3/4
   E   E    E    E    E    E      E    E    E   E    E    E
|-----------------------------|-------------8-------10----8--|
|----------10--------13---10--|-------10-------10------------|
|-----10--------10------------|--10--------------------------|
|-12--------------------------|------------------------------|
|-----------------------------|------------------------------|
|-----------------------------|------------------------------|
|
|  E   E    E    E    E    E      E    E    E   E    E    E
|-----------------------------|----------------(8)------(10)-|
|--------------(10)------(13)-|-(10)------(10)-----(10)------|
|---------(10)------(10)------|------(10)--------------------|
|----(12)---------------------|------------------------------|
|-----------------------------|------------------------------|
|-----------------------------|------------------------------|


                               3/8
   E    E    E   E    E    E      E    E    S    S
|-----------------------------|---------------------|
|-----------------------------|---------------------|
|------------9-------12-------|---------------------|
|------10-------10--------10--|--14h==15---14h=(15)-|
|-12--------------------------|---------------------|
|-----------------------------|---------------------|
|
|  E    E    E   E    E    E      E    E    E
|-(8)-------------------------|---------------------|
|-----------------------------|---------------------|
|---------------(9)------(12)-|---------------------|
|----------(10)-----(10)------|-(10)-(14)h(15)------|
|-----(12)--------------------|---------------------|
|-----------------------------|---------------------|


 3/4
   E    E    E    E    E    E      E     E      E     E     E      E
|------------------------------|---------------------------------------|
|-----------10--------13---10--|---------------10----------13-----10---|
|------10--------10------------|--------10-----------10----------------|
|-12---------------------------|--12-----------------------------------|
|------------------------------|---------------------------------------|
|------------------------------|---------------------------------------|
|
|  E    E    E    E    E    E      E     E      E     E     E      E
|------------------------------|---------------------------------------|
|---------------(10)------(13)-|-(10)---------------(10)---------(13)--|
|----------(10)------(10)------|--------------(10)--------(10)---------|
|-----(12)---------------------|-------(12)----------------------------|
|------------------------------|---------------------------------------|
|------------------------------|---------------------------------------|
|
| Gtr VI
|  H.                              S S   S  S   S S   S S   S  S   S S
|------------------------------|---5p0h==3--5p==0h3---5p0h==3--5p==0h3-|
|------------------------------|---------------------------------------|
|------------------------------|---------------------------------------|
|------------------------------|---------------------------------------|
|------------------------------|---------------------------------------|
|------------------------------|---------------------------------------|


                                        3/8
    E     E      E    E     E      E       E     E      S   S
|--------------------------------------|-----------------------||
|--------------------------------------|-----------------------||
|----------------9---------12----------|-----------------------||
|--------10----------10-----------10---|--14h===15-----14h(15)-||
|--12----------------------------------|-----------------------||
|--------------------------------------|-----------------------||
|
|   E     E      E    E     E      E       E     E      E
|--------------------------------------|-----------------------||
|-(10)---------------------------------|-----------------------||
|--------------------(9)---------(12)--|-----------------------||
|--------------(10)-------(10)---------|-(10)--(14)h==(15)-----||
|-------(12)---------------------------|-----------------------||
|--------------------------------------|----
7 comments total. Showing first comments.
0 reply
and1streeter wrote on December 18 2006, 09:07 am

you should put all of a single guitars parts together to make it easier to read.

+1 reply
XhooperX wrote on May 6 2007, 09:16 pm

how is there like six guitars your on crack

0 reply
SINOWred wrote on May 15 2007, 08:57 pm

its 1 guitar

I want to post or [tab]
guest
You may want to rate the tab now too:
select rating
Please do not post tabs as comments. Select "correction" instead!