Oops, an error
Loading. Please wait.

Fcpremix Tab

ver4
ver4

Intro

More versions @911Tabs.com
20,385 views 21 this week
7 commentsread comments
1 2 3 4 5
excellent!
x 13
Autoscroll
+/-
esc
set tempo
stop
Contributor
Difficulty
advanced
WARNING: You are trying to view
                                    content from Ultimate-Guitar.com
                                    in an unauthorized application,
                                    which is prohibited.

                                    Please use an official Ultimate
                                    Guitar Tabs application for iPhone,
                                    iPad or Android to access legitimate
                                    chords, guitar, bass, and drum tabs
                                    from Ultimate-Guitar.com database.

                                    Type "ultimate guitar tabs" in Apple
                                    App Store's or Android Market's
                                    search to find the application.
F.C.P.R.E.M.I.X.
As recorded by The Fall Of Troy
(From the 2005 Album DOPPLEGANGER)

Transcribed by Whoabot/Brendan December
        

Words and Music by T.F.O.T.
Arranged by T.F.O.T.

Gtr I (E A D G B E) - 'Clean Lead (Left)'
Gtr II (E A D G B E) - 'Clean Lead (Right)'
Gtr III (E A D G B E) - 'Clean Delay, also used as Overdub'
Gtr IV (E A D G B E) - 'Overdriven Lead'
Gtr V (E A D G B E) - 'Overdriven Delay'
Gtr VI (E A D G B E) - 'Overdrive for Volume Effect, also for Overdub'

 Mucho Delayo
  Q=175
  N.C.
 4/4
  Gtr I
   PM----------------------------------------------------------------------------------------------------|
   S   S   S   S   S        S        S       S        S        S       S      S      S      S      S      S
|----------------------------------------------------------------------------------------------------------------|
|----------------------------------------------------------------------------------------------------------------|
|-----------------12------(12)-----------------------------------------9-----(9)---------------------------------|
|---------10-(10)-------------------------------------7-------(7)--------------------7-----(7)-------------------|
|-12-(12)----------------------------8------(8)----------------------------------------------------8-----(8)-----|
|----------------------------------------------------------------------------------------------------------------|
|
| Gtr III
|                  PM----------------------------------------------------------------------------------------|
|  Q               T   T    T    T   T   T   T    T   T   T    T    T  T  T   T   T  T  T   T   T  T  T   T   T
|----------------------------------------------------------------------------------------------------------------|
|----------------------------------------------------------------------------------------------------------------|
|----------------------------------------------------12-(12)-(12)-(12)-----------------------------9-(9)--9--(9)-|
|-----------------------------------10-(10)-10--(10)---------------------------------7-(7)--7--(7)---------------|
|-----------------12-(12)--12--(12)------------------------------------8-(8)--8--(8)-----------------------------|
|----------------------------------------------------------------------------------------------------------------|


  PM------------------------------------------------------------------------------------------------------|
  S      S      S      S      S      S      S      S      S      S      S      S      S      S      S      S
|-----------------------------------------------------------------------------------------------------------------|
|-----------------------------------------------------------------------------------------------------------------|
|-----------------------------7-----(7)---------------------------------5-----(5)---------------------------------|
|---------------5-----(5)---------------------------------3-----(3)-------------------3-----(3)-------------------|
|-7-----(7)---------------------------------5-----(5)-----------------------------------------------5-----(5)-----|
|-----------------------------------------------------------------------------------------------------------------|
|
| PM----------------------------------------------------------------------------------------------------------|
| T  T   T   T  T  T   T   T  T  T   T   T  T  T   T   T  T  T   T   T  T  T   T   T  T  T   T   T  T  T   T   T
|-----------------------------------------------------------------------------------------------------------------|
|-----------------------------------------------------------------------------------------------------------------|
|---------------------------------------------------------7-(7)--7--(7)-----------------------------5-(5)--5--(5)-|
|-7-(7)--7--(7)-----------------------------5-(5)--5--(5)-----------------------------3-(3)--3--(3)---------------|
|---------------8-(8)--8--(8)-7-(7)--7--(7)-----------------------------5-(5)--5--(5)-----------------------------|
|-----------------------------------------------------------------------------------------------------------------|


   PM--------------------------------------------------------------------------------------------------------------------|
   S       S       S       S       S        S        S       S        S        S       S      S      S      S      S      S
|--------------------------------------------------------------------------------------------------------------------------------|
|--------------------------------------------------------------------------------------------------------------------------------|
|---------------------------------12------(12)-----------------------------------------9-----(9)---------------------------------|
|-----------------10-----(10)-----------------------------------------7-------(7)--------------------7-----(7)-------------------|
|-12-----(12)----------------------------------------8------(8)----------------------------------------------------8-----(8)-----|
|--------------------------------------------------------------------------------------------------------------------------------|
|
|  PM------------------------------------------------------------------------------------------------------------------------|
|  T  T    T   T   T  T    T   T   T   T    T    T   T   T   T    T   T   T    T    T  T  T   T   T  T  T   T   T  T  T   T   T
|--------------------------------------------------------------------------------------------------------------------------------|
|--------------------------------------------------------------------------------------------------------------------------------|
|--------------------------------------------------------------------12-(12)-(12)-(12)-----------------------------9-(9)--9--(9)-|
|--3-(3)---3--(3)-----------------------------------10-(10)-10--(10)---------------------------------7-(7)--7--(7)---------------|
|------------------5-(5)---5--(5)-12-(12)--12--(12)------------------------------------8-(8)--8--(8)-----------------------------|
|--------------------------------------------------------------------------------------------------------------------------------|


  E S E S E S  E.              +E        +E
|-----------------------------------------------------|
|-------------12b13===========(12)------(12)r---------|
|-------------16--------------(16)------(16)----------|
|-----------------------------------------------------|
|-7---7---7-------------------------------------------|
|-----------------------------------------------------|
|
| E S E S E E          E.           +E         +S
|-----------------------------------------------------|
|--------------------(12)b13=======(12)-------(12)r---|
|-7---7---7----------(16)----------(16)-------(16)----|
|-----------------------------------------------------|
|-----------------------------------------------------|
|-----------------------------------------------------|


  Gtrs I, II
   PM----------------------------------------------------------------------------------------------------|
   S   S   S   S   S        S        S       S        S        S       S      S      S      S      S      S
|----------------------------------------------------------------------------------------------------------------|
|----------------------------------------------------------------------------------------------------------------|
|-----------------12------(12)-----------------------------------------9-----(9)---------------------------------|
|---------10-(10)-------------------------------------7-------(7)--------------------7-----(7)-------------------|
|-12-(12)----------------------------8------(8)----------------------------------------------------8-----(8)-----|
|----------------------------------------------------------------------------------------------------------------|
|
|                  PM----------------------------------------------------------------------------------------|
|  Q               T   T    T    T   T   T   T    T   T   T    T    T  T  T   T   T  T  T   T   T  T  T   T   T
|----------------------------------------------------------------------------------------------------------------|
|----------------------------------------------------------------------------------------------------------------|
|----------------------------------------------------12-(12)-(12)-(12)-----------------------------9-(9)--9--(9)-|
|-----------------------------------10-(10)-10--(10)---------------------------------7-(7)--7--(7)---------------|
|-----------------12-(12)--12--(12)------------------------------------8-(8)--8--(8)-----------------------------|
|----------------------------------------------------------------------------------------------------------------|


  PM------------------------------------------------------------------------------------------------------|
  S      S      S      S      S      S      S      S      S      S      S      S      S      S      S      S
|-----------------------------------------------------------------------------------------------------------------|
|-----------------------------------------------------------------------------------------------------------------|
|-----------------------------7-----(7)---------------------------------5-----(5)---------------------------------|
|---------------5-----(5)---------------------------------3-----(3)-------------------3-----(3)-------------------|
|-7-----(7)---------------------------------5-----(5)-----------------------------------------------5-----(5)-----|
|-----------------------------------------------------------------------------------------------------------------|
|
| PM----------------------------------------------------------------------------------------------------------|
| T  T   T   T  T  T   T   T  T  T   T   T  T  T   T   T  T  T   T   T  T  T   T   T  T  T   T   T  T  T   T   T
|-----------------------------------------------------------------------------------------------------------------|
|-----------------------------------------------------------------------------------------------------------------|
|---------------------------------------------------------7-(7)--7--(7)-----------------------------5-(5)--5--(5)-|
|-7-(7)--7--(7)-----------------------------5-(5)--5--(5)-----------------------------3-(3)--3--(3)---------------|
|---------------8-(8)--8--(8)-7-(7)--7--(7)-----------------------------5-(5)--5--(5)-----------------------------|
|-----------------------------------------------------------------------------------------------------------------|


   PM--------------------------------------------------------------------------------------------------------------------|
   S       S       S       S       S        S        S       S        S        S       S      S      S      S      S      S
|--------------------------------------------------------------------------------------------------------------------------------|
|--------------------------------------------------------------------------------------------------------------------------------|
|---------------------------------12------(12)-----------------------------------------9-----(9)---------------------------------|
|-----------------10-----(10)-----------------------------------------7-------(7)--------------------7-----(7)-------------------|
|-12-----(12)----------------------------------------8------(8)----------------------------------------------------8-----(8)-----|
|--------------------------------------------------------------------------------------------------------------------------------|
|
|  PM------------------------------------------------------------------------------------------------------------------------|
|  T  T    T   T   T  T    T   T   T   T    T    T   T   T   T    T   T   T    T    T  T  T   T   T  T  T   T   T  T  T   T   T
|--------------------------------------------------------------------------------------------------------------------------------|
|--------------------------------------------------------------------------------------------------------------------------------|
|--------------------------------------------------------------------12-(12)-(12)-(12)-----------------------------9-(9)--9--(9)-|
|--3-(3)---3--(3)-----------------------------------10-(10)-10--(10)---------------------------------7-(7)--7--(7)---------------|
|------------------5-(5)---5--(5)-12-(12)--12--(12)------------------------------------8-(8)--8--(8)-----------------------------|
|--------------------------------------------------------------------------------------------------------------------------------|


  Dsus2/E
  Gtr IV
  W
|---------------||
|-5-------------||
|-7-------------||
|-x-------------||
|-7-------------||
|---------------||
|
| Gtr V
| S  S  +H..
|---------------||
|---(5)-(5)-----||
|---(7)-(7)-----||
|---(x)---------||
|---(7)-(7)-----||
|---------------||


  N.C.                                                              G5
                                                              |----3----|
   E  E  E E E E E E   E E E E E E E E    E  E  E E E E E E   q q q q q Q
|--------------------|-----------------|--------------------|-------------|
|--------------------|-----------------|--------------------|-------------|
|-------12-----9-----|-----7-----5-----|-------12-----9-----|-7-7-7-------|
|----10------7---7---|---5-----3---3---|----10------7---7---|-x-x-x-5-5-5-|
|-12-------8-------8-|-7-----5-------5S|=12-------8-------8-|-5-5-5-5-5-x-|
|--------------------|-----------------|--------------------|-------3-3-3-|


  N.C.
   E  E  E E E E E E   E E E E E E E E    E  E  E E E E E E   Q  Q    H
|--------------------|-----------------|--------------------|-------(<7>)----||
|--------------------|-----------------|--------------------|-------(<7>)----||
|-------12-----9-----|-----7-----5-----|-------12-----9-----|-7--------------||
|----10------7---7---|---5-----3---3---|----10------7---7---|----------------||
|-12-------8-------8-|-7-----5-------5S|=12-------8-------8-|----------------||
|--------------------|-----------------|--------------------|----------------||


 Verse
  N.C.
                                                              |----3----|
   E  E  E E E E E E   E E E E E E E E    E  E  E E E E E E   q q q q q Q
|--------------------|-----------------|--------------------|-------------|
|--------------------|-----------------|--------------------|-------------|
|-------12-----9-----|-----7-----5-----|-------12-----9-----|-7-7-7-------|
|----10------7---7---|---5-----3---3---|----10------7---7---|-x-x-x-5-5-5-|
|-12-------8-------8-|-7-----5-------5S|=12-------8-------8-|-5-5-5-x-x-x-|
|--------------------|-----------------|--------------------|-------3-3-3-|


                                                              ~~
   E  E  E E E E E E   E E E E E E E E    E  E  E E E E E E   H.      +Q
|--------------------|-----------------|--------------------|---------------||
|--------------------|-----------------|--------------------|---------------||
|-------12-----9-----|-----7-----5-----|-------12-----9-----|-7-------(7)\--||
|----10------7---7---|---5-----3---3---|----10------7---7---|---------------||
|-12-------8-------8-|-7-----5-------5S|=12-------8-------8-|---------------||
|--------------------|-----------------|--------------------|---------------||


 2/2
                                                              |----3----|
   E  E  E E E E E E   E E E E E E E E    E  E  E E E E E E   q q q q q Q
|--------------------|-----------------|--------------------|--------------|
|--------------------|-----------------|--------------------|--------------|
|-------12-----9-----|-----7-----5-----|-------12-----9-----|-7-7-7--------|
|----10------7---7---|---5-----3---3---|----10------7---7---|-x-x-x-5-5-5--|
|-12-------8-------8-|-7-----5-------5S|=12-------8-------8-|-5-5-5-x-x-x--|
|--------------------|-----------------|--------------------|-------3-3-3--|


                                                              Em
                                                              PM----|
   E  E  E E E E E E   E E E E E E E E    E  E  E E E E E E   e e e e E E E E
|--------------------|-----------------|--------------------|-----------------||
|--------------------|-----------------|--------------------|-----------------||
|-------12-----9-----|-----7-----5-----|-------12-----9-----|---------7-7-7-7-||
|----10------7---7---|---5-----3---3---|----10------7---7---|-5-5-5-5-5-5-5-5-||
|-12-------8-------8-|-7-----5-------5S|=12-------8-------8-|-7-7-7-7-7-7-7-7-||
|--------------------|-----------------|--------------------|-----------------||


 Chorus
  Asus2
   E   E   E    E    E    E    E    E      E    E      E      E    E    E    E    E
|--------------------------------------|---------------------------------------------|
|--------------------------------------|---------------------------------------------|
|-14p=12-------14p==12--------14p==12--|-------14p====12----------14p==12--------14--|
|---------14-------------14------------|--14-----------------14-------------14-------|
|--------------------------------------|---------------------------------------------|
|--------------------------------------|---------------------------------------------|
|
| Gtr V
|  Q       E    E    E    E    E    E      E    E      E      E    E    E    E    E
|--------------------------------------|---------------------------------------------|
|--------------------------------------|---------------------------------------------|
|--------(14)p(12)------(14)p(12)------|-(14)p(12)----------(14)p(12)------(14)p(12)-|
|------------------(14)-----------(14)-|-------------(14)-------------(14)-----------|
|--------------------------------------|---------------------------------------------|
|--------------------------------------|---------------------------------------------|
|
| Gtr III
|                                          |------3-------|
|  H                 H                     Q       Q      Q        Q         Q
|--------------------0-----------------|---------------------------------------------|
|-(0)----------------0-----------------|---------------------------0-----------------|
|--2-----------------2-----------------|------------------2--------2-----------------|
|--2-----------------2-----------------|-----------2---------------------------------|
|--0-----------------0-----------------|---0---------------------------------0-------|
|--------------------------------------|---------------------------------------------|


  C                                         Cadd9
    E    E    E    E    E    E    E    E      E    E    E    E    E    E      E      E
|------------15-------------15------------|--15-------------15---------------15---------|
|--12h==13--------12h==13--------12h==13--|-------12h==13--------12h==13------------13--|
|-----------------------------------------|---------------------------------------------|
|-----------------------------------------|---------------------------------------------|
|-----------------------------------------|---------------------------------------------|
|-----------------------------------------|---------------------------------------------|
|
|   E    E    E    E    E    E    E    E      E    E    E    E    E    E      E      E
|---------------------(15)-----------(15)-|-----------(15)-----------(15)---------------|
|-----------(12)h(13)------(12)h(13)------|-(12)h(13)------(12)h(13)--------(12)h==(13)-|
|------(14)-------------------------------|---------------------------------------------|
|-(14)------------------------------------|---------------------------------------------|
|-----------------------------------------|---------------------------------------------|
|-----------------------------------------|---------------------------------------------|
|
|                                                                 |------3-------|
|   E    E    E    E    H                     E    E    E    E    Q       Q      Q
|-----------------------------------------|---------------------------------------------|
|-----------------------1-----------------|-------------3---------3---------------------|
|-------------0---------0-----------------|-------------0-----------------0-------------|
|--------2---------2----3-----------------|--------2---------2-------------------2------|
|---3-------------------------------------|---3-----------------------------------------|
|-----------------------------------------|---------------------------------------------|


  F
    E    E      E      E    E    E    E    E      E    E      E      E    E    E    E    E
|---------------------------------------------|---------------------------------------------|
|---------------------------------------------|---------------------------------------------|
|---9h==10-----12-----------9h==10---12-------|---9h==10-----12-----------9h==10---12-------|
|---------------------10------------------10--|---------------------10------------------10--|
|---------------------------------------------|---------------------------------------------|
|---------------------------------------------|---------------------------------------------|
|
|   E    E      E      E    E    E    E    E      E    E      E      E    E    E    E    E
|-(15)----------------------------------------|---------------------------------------------|
|------(13)-----------------------------------|---------------------------------------------|
|-------------------------(12)----------------|-(12)--------------------(12)----------------|
|-------------(14)h==(15)-----------(14)h(15)-|-------------(14)h==(15)-----------(14)h(15)-|
|------------------------------(15)-----------|------(15)--------------------(15)-----------|
|---------------------------------------------|---------------------------------------------|
|
|   |------3-------|                              |------3-------|
|   Q       Q      Q        H                     Q       Q      Q        H
|---------------------------------------------|---------------------------------------------|
|---------------------------------------------|---------------------------------------------|
|---------------------------2-----------------|---------------------------2-----------------|
|-----------3---------------3-----------------|-----------3---------------3-----------------|
|-----------0---------------------------------|-----------0---------------------------------|
|---1--------------1--------------------------|---1--------------1--------------------------|


  Cadd9                                     G
    E    E    E    E    E    E    E    E      E    E    E    E    E    E      E      E
|-----------------------------------------|-----------------------------------------15--|
|------------13-------------13--------13--|------------15--------15----------17---------|
|---9h==10---------9h==10---------9-------|--10h==12--------12--------12----------------|
|-----------------------------------------|---------------------------------------------|
|-----------------------------------------|---------------------------------------------|
|-----------------------------------------|---------------------------------------------|
|
|   E    E    E    E    E    E    E    E      E    E    E    E    E    E      E      E
|-----------------------------------------|---------------------------------------------|
|-----------------------------------------|----------------------------------------(17)-|
|-(12)----------------(17)-----------(17)-|------(17)-----------(19)--------(19)--------|
|-----------(14)h(15)------(14)h(15)------|-(14)------(15)h(17)------(17)---------------|
|------(15)-------------------------------|---------------------------------------------|
|-----------------------------------------|---------------------------------------------|
|
|                                                                 |------3-------|
|   E    E    E    E    Q         E    E      E    E    E    E    Q       Q      Q
|-----------------------------------------|---------------------------------------------|
|-------------3---------3---------3----3--|-------------3---------3-------3------3------|
|-------------0-------------------0----0--|--------0--------------0-------0------0------|
|--------2---------2--------------2----2--|---0--------------0--------------------------|
|---3-------------------------------------|---------------------------------------------|
|-----------------------------------------|---------------------------------------------|


  Asus2
   E   E   E    E    E    E    E    E      E    E      E      E    E    E    E   +E
|-17--15-------17---15--------17---15--|-------17-----15----------17---15------------|
|---------17-------------17------------|--17-----------------17-------------17--(17)S|
|--------------------------------------|---------------------------------------------|
|--------------------------------------|---------------------------------------------|
|--------------------------------------|---------------------------------------------|
|--------------------------------------|---------------------------------------------|
|
| Gtr V
|  Q       E    E    E    E    E    E      E    E      E      E    E    E    E    E
|--------(17)-(15)------(17)-(15)------|-(17)-(15)----------(17)-(15)------(17)-(15)-|
|------------------(17)-----------(17)-|-------------(17)-------------(17)-----------|
|--------------------------------------|---------------------------------------------|
|--------------------------------------|---------------------------------------------|
|--------------------------------------|---------------------------------------------|
|--------------------------------------|---------------------------------------------|
|
| Gtr III
|                                          |------3-------|
|  H                 H                     Q       Q      Q        Q         Q
|--------------------0-----------------|---------------------------------------------|
|-(0)----------------0-----------------|---------------------------0-----------------|
|--2-----------------2-----------------|------------------2--------2-----------------|
|--2-----------------2-----------------|-----------2---------------------------------|
|--0-----------------0-----------------|---0---------------------------------0-------|
|--------------------------------------|---------------------------------------------|


  C                                         Cadd9
    E    E    E    E    E    E    E    E      E    E    E    E    E    E      E      E
|------------15-------------15------------|--15-------------15---------------15---------|
|--12h==13--------12h==13--------12h==13--|-------12h==13--------12h==13------------13--|
|-----------------------------------------|---------------------------------------------|
|-----------------------------------------|---------------------------------------------|
|-----------------------------------------|---------------------------------------------|
|-----------------------------------------|---------------------------------------------|
|
|   E   +E    E    E    E    E    E    E      E    E    E    E    E    E      E      E
|---------------------(15)-----------(15)-|-----------(15)-----------(15)---------------|
|-(17)-(17)S(12)h(13)------(12)h(13)------|-(12)h(13)------(12)h(13)--------(12)h==(13)-|
|-----------------------------------------|---------------------------------------------|
|-----------------------------------------|---------------------------------------------|
|-----------------------------------------|---------------------------------------------|
|-----------------------------------------|---------------------------------------------|
|
|                                                                 |------3-------|
|   E    E    E    E    H                     E    E    E    E    Q       Q      Q
|-----------------------------------------|---------------------------------------------|
|-----------------------1-----------------|-------------3---------3---------------------|
|-------------0---------0-----------------|-------------0-----------------0-------------|
|--------2---------2----3-----------------|--------2---------2-------------------2------|
|---3-------------------------------------|---3-----------------------------------------|
|-----------------------------------------|---------------------------------------------|


  F
    E    E      E      E    E    E    E    E      E    E      E      E    E    E    E    E
|---------------------------------------------|---------------------------------------------|
|---------------------------------------------|---------------------------------------------|
|--------------12--------------------12-------|--------------12--------------------12-------|
|--14h==15-----------------14h==15------------|--14h==15-----------------14h==15------------|
|---------------------15------------------15--|---------------------15------------------15--|
|---------------------------------------------|---------------------------------------------|
|
|   E    E      E      E    E    E    E    E      E    E      E      E    E    E    E    E
|-(15)----------------------------------------|---------------------------------------------|
|------(13)-----------------------------------|---------------------------------------------|
|-------------------------(12)----------------|-(12)--------------------(12)----------------|
|-------------(14)h==(15)-----------(14)h(15)-|-------------(14)h==(15)-----------(14)h(15)-|
|------------------------------(15)-----------|------(15)--------------------(15)-----------|
|---------------------------------------------|---------------------------------------------|
|
|   |------3-------|                              |------3-------|
|   Q       Q      Q        H                     Q       Q      Q        H
|---------------------------------------------|---------------------------------------------|
|---------------------------------------------|---------------------------------------------|
|---------------------------2-----------------|---------------------------2-----------------|
|-----------3---------------3-----------------|-----------3---------------3-----------------|
|-----------0---------------------------------|-----------0---------------------------------|
|---1--------------1--------------------------|---1--------------1--------------------------|


  Cadd9
    E    E    E    E    E    E    E    E      E    E    E    E    E    E    Q
|-----------------------------------------|------------------------------------------||
|-----------------------------------------|------------------------------------------||
|------------17-------------17--------17--|------------19--------19--------19\-------||
|--14h==15--------14h==15--------14-------|--15h==17--------17--------17-------------||
|-----------------------------------------|------------------------------------------||
|-----------------------------------------|------------------------------------------||
|
|   E    E    E    E    E    E    E    E      E    E    E    E    E    E    E     E
|-----------------------------------------|------------------------------------------||
|-----------------------------------------|------------------------------------------||
|-(12)----------------(17)-----------(17)-|------(17)-----------(19)------(19)-------||
|-----------(14)h(15)------(14)h(15)------|-(14)------(15)h(17)------(17)-------(17)-||
|------(15)-------------------------------|------------------------------------------||
|-----------------------------------------|------------------------------------------||
|
|   E    E    E    E    Q         E    E      E    E    E    E    Q        +Q
|-----------------------------------------|------------------------------------------||
|-------------3---------3---------3----3--|-------------3---------4--------(4)\------||
|-------------0-------------------0----0--|--------2--------------7--------(7)\------||
|--------2---------2--------------2----2--|---0--------------0-----------------------||
|---3-------------------------------------|------------------------------------------||
|-----------------------------------------|------------------------------------------||


 Pre-Verse
  N.C.
 4/4
                                                              |----3----|
   E  E  E E E E E E   E E E E E E E E    E  E  E E E E E E   q q q q q Q
|--------------------|-----------------|--------------------|--------------|
|--------------------|-----------------|--------------------|--------------|
|-------12-----9-----|-----7-----5-----|-------12-----9-----|-7-7-7--------|
|----10------7---7---|---5-----3---3---|----10------7---7---|-x-x-x-5-5-5--|
|-12-------8-------8-|-7-----5-------5S|=12-------8-------8-|-5-5-5-x-x-x--|
|--------------------|-----------------|--------------------|-------3-3-3--|


   E  E  E E E E E E   E E E E E E E E    E  E  E E E E E E   H      +H
|--------------------|-----------------|--------------------|---------------||
|--------------------|-----------------|--------------------|-5------(5)----||
|-------12-----9-----|-----7-----5-----|-------12-----9-----|-x-------------||
|----10------7---7---|---5-----3---3---|----10------7---7---|-5------(5)----||
|-12-------8-------8-|-7-----5-------5S|=12-------8-------8-|-5b6r===(5)----||
|--------------------|-----------------|--------------------|---------------||


 Verse
  N.C.
                                                              |----3----|
   E  E  E E E E E E   E E E E E E E E    E  E  E E E E E E   q q q q q Q
|--------------------|-----------------|--------------------|-------------|
|--------------------|-----------------|--------------------|-------------|
|-------12-----9-----|-----7-----5-----|-------12-----9-----|-7-7-7-------|
|----10------7---7---|---5-----3---3---|----10------7---7---|-x-x-x-5-5-5-|
|-12-------8-------8-|-7-----5-------5S|=12-------8-------8-|-5-5-5-x-x-x-|
|--------------------|-----------------|--------------------|-------3-3-3-|


   E  E  E E E E E E   E E E E E E E E    E  E  E E E E E E   H     H
|--------------------|-----------------|--------------------|------------|
|--------------------|-----------------|--------------------|------------|
|-------12-----9-----|-----7-----5-----|-------12-----9-----|-7-----9----|
|----10------7---7---|---5-----3---3---|----10------7---7---|------------|
|-12-------8-------8-|-7-----5-------5S|=12-------8-------8-|------------|
|--------------------|-----------------|--------------------|------------|
|
| Gtr V
|  W                   W                  W                   H     H
|--------------------|-----------------|--------------------|------------|
|--------------------|-----------------|--------------------|------------|
|--------------------|-----------------|--------------------|------------|
|--------------------|-----------------|--------------------|-9----10----|
|--------------------|-----------------|--------------------|------------|
|--------------------|-----------------|--------------------|------------|


 2/2
                                                              |----3----|
   E  E  E E E E E E   E E E E E E E E    E  E  E E E E E E   q q q q q Q
|--------------------|-----------------|--------------------|--------------|
|--------------------|-----------------|--------------------|--------------|
|-------12-----9-----|-----7-----5-----|-------12-----9-----|-7-7-7--------|
|----10------7---7---|---5-----3---3---|----10------7---7---|-x-x-x-5-5-5--|
|-12-------8-------8-|-7-----5-------5S|=12-------8-------8-|-5-5-5-x-x-x--|
|--------------------|-----------------|--------------------|-------3-3-3--|


                                                              Em
                                                              PM----|
   E  E  E E E E E E   E E E E E E E E    E  E  E E E E E E   e e e e E E E E
|--------------------|-----------------|--------------------|-----------------||
|--------------------|-----------------|--------------------|-----------------||
|-------12-----9-----|-----7-----5-----|-------12-----9-----|---------7-7-7-7-||
|----10------7---7---|---5-----3---3---|----10------7---7---|-5-5-5-5-5-5-5-5-||
|-12-------8-------8-|-7-----5-------5S|=12-------8-------8-|-7-7-7-7-7-7-7-7-||
|--------------------|-----------------|--------------------|-----------------||


 Chorus
  Asus2
   E   E   E    E    E    E    E    E      E    E      E      E    E    E    E    E
|--------------------------------------|---------------------------------------------|
|--------------------------------------|---------------------------------------------|
|-14p=12-------14p==12--------14p==12--|-------14p====12----------14p==12--------14--|
|---------14-------------14------------|--14-----------------14-------------14-------|
|--------------------------------------|---------------------------------------------|
|--------------------------------------|---------------------------------------------|
|
| Gtr V
|  Q       E    E    E    E    E    E      E    E      E      E    E    E    E    E
|--------------------------------------|---------------------------------------------|
|--------------------------------------|---------------------------------------------|
|--------(14)p(12)------(14)p(12)------|-(14)p(12)----------(14)p(12)------(14)p(12)-|
|------------------(14)-----------(14)-|-------------(14)-------------(14)-----------|
|--------------------------------------|---------------------------------------------|
|--------------------------------------|---------------------------------------------|
|
| Gtr III
|                                          |------3-------|
|  H                 H                     Q       Q      Q        Q         Q
|--------------------0-----------------|---------------------------------------------|
|-(0)----------------0-----------------|---------------------------0-----------------|
|--2-----------------2-----------------|------------------2--------2-----------------|
|--2-----------------2-----------------|-----------2---------------------------------|
|--0-----------------0-----------------|---0---------------------------------0-------|
|--------------------------------------|---------------------------------------------|


  C                                         Cadd9
    E    E    E    E    E    E    E    E      E    E    E    E    E    E      E      E
|------------15-------------15------------|--15-------------15---------------15---------|
|--12h==13--------12h==13--------12h==13--|-------12h==13--------12h==13------------13--|
|-----------------------------------------|---------------------------------------------|
|-----------------------------------------|---------------------------------------------|
|-----------------------------------------|---------------------------------------------|
|-----------------------------------------|---------------------------------------------|
|
|   E    E    E    E    E    E    E    E      E    E    E    E    E    E      E      E
|---------------------(15)-----------(15)-|-----------(15)-----------(15)---------------|
|-----------(12)h(13)------(12)h(13)------|-(12)h(13)------(12)h(13)--------(12)h==(13)-|
|------(14)-------------------------------|---------------------------------------------|
|-(14)------------------------------------|---------------------------------------------|
|-----------------------------------------|---------------------------------------------|
|-----------------------------------------|---------------------------------------------|
|
|                                                                 |------3-------|
|   E    E    E    E    H                     E    E    E    E    Q       Q      Q
|-----------------------------------------|---------------------------------------------|
|-----------------------1-----------------|-------------3---------3---------------------|
|-------------0---------0-----------------|-------------0-----------------0-------------|
|--------2---------2----3-----------------|--------2---------2-------------------2------|
|---3-------------------------------------|---3-----------------------------------------|
|-----------------------------------------|---------------------------------------------|


  F
    E    E      E      E    E    E    E    E      E    E      E      E    E    E    E    E
|---------------------------------------------|---------------------------------------------|
|---------------------------------------------|---------------------------------------------|
|---9h==10-----12-----------9h==10---12-------|---9h==10-----12-----------9h==10---12-------|
|---------------------10------------------10--|---------------------10------------------10--|
|---------------------------------------------|---------------------------------------------|
|---------------------------------------------|---------------------------------------------|
|
|   E    E      E      E    E    E    E    E      E    E      E      E    E    E    E    E
|-(15)----------------------------------------|---------------------------------------------|
|------(13)-----------------------------------|---------------------------------------------|
|-------------------------(12)----------------|-(12)--------------------(12)----------------|
|-------------(14)h==(15)-----------(14)h(15)-|-------------(14)h==(15)-----------(14)h(15)-|
|------------------------------(15)-----------|------(15)--------------------(15)-----------|
|---------------------------------------------|---------------------------------------------|
|
|   |------3-------|                              |------3-------|
|   Q       Q      Q        H                     Q       Q      Q        H
|---------------------------------------------|---------------------------------------------|
|---------------------------------------------|---------------------------------------------|
|---------------------------2-----------------|---------------------------2-----------------|
|-----------3---------------3-----------------|-----------3---------------3-----------------|
|-----------0---------------------------------|-----------0---------------------------------|
|---1--------------1--------------------------|---1--------------1--------------------------|


  Cadd9                                     G
    E    E    E    E    E    E    E    E      E    E    E    E    E    E      E      E
|-----------------------------------------|-----------------------------------------15--|
|------------13-------------13--------13--|------------15--------15----------17---------|
|---9h==10---------9h==10---------9-------|--10h==12--------12--------12----------------|
|-----------------------------------------|---------------------------------------------|
|-----------------------------------------|---------------------------------------------|
|-----------------------------------------|---------------------------------------------|
|
|   E    E    E    E    E    E    E    E      E    E    E    E    E    E      E      E
|-----------------------------------------|---------------------------------------------|
|-----------------------------------------|----------------------------------------(17)-|
|-(12)----------------(17)-----------(17)-|------(17)-----------(19)--------(19)--------|
|-----------(14)h(15)------(14)h(15)------|-(14)------(15)h(17)------(17)---------------|
|------(15)-------------------------------|---------------------------------------------|
|-----------------------------------------|---------------------------------------------|
|
|                                                                 |------3-------|
|   E    E    E    E    Q         E    E      E    E    E    E    Q       Q      Q
|-----------------------------------------|---------------------------------------------|
|-------------3---------3---------3----3--|-------------3---------3-------3------3------|
|-------------0-------------------0----0--|--------0--------------0-------0------0------|
|--------2---------2--------------2----2--|---0--------------0--------------------------|
|---3-------------------------------------|---------------------------------------------|
|-----------------------------------------|---------------------------------------------|


  Asus2
   E   E   E    E    E    E    E    E      E    E      E      E    E    E    E   +E
|-17--15-------17---15--------17---15--|-------17-----15----------17---15------------|
|---------17-------------17------------|--17-----------------17-------------17--(17)S|
|--------------------------------------|---------------------------------------------|
|--------------------------------------|---------------------------------------------|
|--------------------------------------|---------------------------------------------|
|--------------------------------------|---------------------------------------------|
|
|  Q       E    E    E    E    E    E      E    E      E      E    E    E    E    E
|--------(17)-(15)------(17)-(15)------|-(17)-(15)----------(17)-(15)------(17)-(15)-|
|------------------(17)-----------(17)-|-------------(17)-------------(17)-----------|
|--------------------------------------|---------------------------------------------|
|--------------------------------------|---------------------------------------------|
|--------------------------------------|---------------------------------------------|
|--------------------------------------|---------------------------------------------|
|
|                                          |------3-------|
|  H                 H                     Q       Q      Q        Q         Q
|--------------------0-----------------|---------------------------------------------|
|-(0)----------------0-----------------|---------------------------0-----------------|
|--2-----------------2-----------------|------------------2--------2-----------------|
|--2-----------------2-----------------|-----------2---------------------------------|
|--0-----------------0-----------------|---0---------------------------------0-------|
|--------------------------------------|---------------------------------------------|


  C                                         Cadd9
    E    E    E    E    E    E    E    E      E    E    E    E    E    E      E      E
|------------15-------------15------------|--15-------------15---------------15---------|
|--12h==13--------12h==13--------12h==13--|-------12h==13--------12h==13------------13--|
|-----------------------------------------|---------------------------------------------|
|-----------------------------------------|---------------------------------------------|
|-----------------------------------------|---------------------------------------------|
|-----------------------------------------|---------------------------------------------|
|
|   E   +E    E    E    E    E    E    E      E    E    E    E    E    E      E      E
|---------------------(15)-----------(15)-|-----------(15)-----------(15)---------------|
|-(17)-(17)S(12)h(13)------(12)h(13)------|-(12)h(13)------(12)h(13)--------(12)h==(13)-|
|-----------------------------------------|---------------------------------------------|
|-----------------------------------------|---------------------------------------------|
|-----------------------------------------|---------------------------------------------|
|-----------------------------------------|---------------------------------------------|
|
|                                                                 |------3-------|
|   E    E    E    E    H                     E    E    E    E    Q       Q      Q
|-----------------------------------------|---------------------------------------------|
|-----------------------1-----------------|-------------3---------3---------------------|
|-------------0---------0-----------------|-------------0-----------------0-------------|
|--------2---------2----3-----------------|--------2---------2-------------------2------|
|---3-------------------------------------|---3-----------------------------------------|
|-----------------------------------------|---------------------------------------------|


  F
    E    E      E      E    E    E    E    E      E    E      E      E    E    E    E    E
|---------------------------------------------|---------------------------------------------|
|---------------------------------------------|---------------------------------------------|
|--------------12--------------------12-------|--------------12--------------------12-------|
|--14h==15-----------------14h==15------------|--14h==15-----------------14h==15------------|
|---------------------15------------------15--|---------------------15------------------15--|
|---------------------------------------------|---------------------------------------------|
|
|   E    E      E      E    E    E    E    E      E    E      E      E    E    E    E    E
|-(15)----------------------------------------|---------------------------------------------|
|------(13)-----------------------------------|---------------------------------------------|
|-------------------------(12)----------------|-(12)--------------------(12)----------------|
|-------------(14)h==(15)-----------(14)h(15)-|-------------(14)h==(15)-----------(14)h(15)-|
|------------------------------(15)-----------|------(15)--------------------(15)-----------|
|---------------------------------------------|---------------------------------------------|
|
|   |------3-------|                              |------3-------|
|   Q       Q      Q        H                     Q       Q      Q        H
|---------------------------------------------|---------------------------------------------|
|---------------------------------------------|---------------------------------------------|
|---------------------------2-----------------|---------------------------2-----------------|
|-----------3---------------3-----------------|-----------3---------------3-----------------|
|-----------0---------------------------------|-----------0---------------------------------|
|---1--------------1--------------------------|---1--------------1--------------------------|


  Cadd9
    E    E    E    E    E    E    E    E      E      E    E    E    E    E    Q
|-----------------------------------------|-------------------------------------------||
|-----------------------------------------|-------------------------------------------||
|------------17-------------17--------17--|--------------19--------19--------19\------||
|--14h==15--------14h==15--------14-------|--15h====17--------17--------17------------||
|-----------------------------------------|-------------------------------------------||
|-----------------------------------------|-------------------------------------------||
|
|   E    E    E    E    E    E    E    E      E      E    E    E    E    E    E    E
|-----------------------------------------|-------------------------------------------||
|-----------------------------------------|-------------------------------------------||
|-(12)----------------(17)-----------(17)-|--------(17)-----------(19)------(19)------||
|-----------(14)h(15)------(14)h(15)------|-(14)--------(15)h(17)------(17)------(17)-||
|------(15)-------------------------------|-------------------------------------------||
|-----------------------------------------|-------------------------------------------||
|
|                                           Gtr VI
|   E    E    E    E    Q         E    E      H.                             +Q
|-----------------------------------------|--15b17--------------------------(15)------||
|-------------3---------3---------3----3--|-------------------------------------------||
|-------------0-------------------0----0--|-------------------------------------------||
|--------2---------2--------------2----2--|-------------------------------------------||
|---3-------------------------------------|-------------------------------------------||
|-----------------------------------------|-------------------------------------------||


 Breakdown
  N.C.
 3/4
    PM------------------------------------------------------------------------------------------
    E           E               E               E               E               E
|----------------------------------------------------------------------------------------------|
|------------------------------10------------------------------13--------------10--------------|
|--------------10------------------------------10----------------------------------------------|
|--12------------------------------------------------------------------------------------------|
|----------------------------------------------------------------------------------------------|
|----------------------------------------------------------------------------------------------|
|
|       PM--------------------------------------------------------------------------------------
|   S   T   T   T   T   T   T   T   T   T   T   T   T   T   T   T   T   T   T   T   T   T   T
|----------------------------------------------------------------------------------------------|
|--------------------------------------10-(10)-10-(10)-----------------13-(13)-13-(13)-10-(10)-|
|----------------------10-(10)-10-(10)-----------------10-(10)-10-(10)-------------------------|
|------12-(12)-12-(12)-------------------------------------------------------------------------|
|----------------------------------------------------------------------------------------------|
|----------------------------------------------------------------------------------------------|
|
|   >
|  +H.
|-(15)-----------------------------------------------------------------------------------------|
|----------------------------------------------------------------------------------------------|
|----------------------------------------------------------------------------------------------|
|----------------------------------------------------------------------------------------------|
|----------------------------------------------------------------------------------------------|
|----------------------------------------------------------------------------------------------|


 ----------------------------------------------------------------------------------|
   E                E               E               E               E               E
|---------------------------------------------------------------------------------------------------|
|----------------------------------10------------------------------13--------------10---------------|
|------------------10------------------------------10-----------------------------------------------|
|-12------------------------------------------------------------------------------------------------|
|---------------------------------------------------------------------------------------------------|
|---------------------------------------------------------------------------------------------------|
|
|---------------------------------------------------------------------------------------------|
|  T    T   T   T   T   T   T   T   T   T   T   T   T   T   T   T   T   T   T   T   T   T   T   T
|---------------------------------------------------------------------------------------------------|
|-10--(10)---------------------------------10-(10)-10-(10)-----------------13-(13)-13-(13)-10-(10)--|
|--------------------------10-(10)-10-(10)-----------------10-(10)-10-(10)--------------------------|
|----------12-(12)-12-(12)--------------------------------------------------------------------------|
|---------------------------------------------------------------------------------------------------|
|---------------------------------------------------------------------------------------------------|
|
|  H.
|---------------------------------------------------------------------------------------------------|
|---------------------------------------------------------------------------------------------------|
|---------------------------------------------------------------------------------------------------|
|---------------------------------------------------------------------------------------------------|
|---------------------------------------------------------------------------------------------------|
|---------------------------------------------------------------------------------------------------|


   PM------------------------------------------------------------------------|
   E               E               E             E              E             E
|------------------------------------------------------------------------------------------|
|------------------------------------------------------------------------------------------|
|----------------------------------9---------------------------12--------------------------|
|-----------------10----------------------------10---------------------------10------------|
|-12---------------------------------------------------------------------------------------|
|------------------------------------------------------------------------------------------|
|
|  PM---------------------------------------------------------------------------------|
|  T   T   T   T   T   T   T   T   T   T  T  T   T  T   T   T   T   T   T  T  T  T  T   T
|------------------------------------------------------------------------------------------|
|-10-(10)----------------------------------------------------------------------------------|
|-----------------------------------------9-(9)--9-(9)-----------------12-12-12-12---------|
|-------------------------10-(10)-10-(10)--------------10-(10)-10-(10)-------------10-(10)-|
|---------12-(12)-12-(12)------------------------------------------------------------------|
|------------------------------------------------------------------------------------------|


 3/8
   E  E  S   S
|---------------|
|---------------|
|---------------|
|-14h15-14h(15)-|
|---------------|
|---------------|
|
|  Q.
|---------------|
|---------------|
|---------------|
|---------------|
|---------------|
|---------------|


   3/4
     E   E    E    E    E    E      E    E    E    E    E    E
||------------------------------|-------------------------------|
||o----------10--------13---10--|------------10--------13---10--|
||------10--------10------------|-------10--------10------------|
||--12--------------------------|--12---------------------------|
||o-----------------------------|-------------------------------|
||------------------------------|-------------------------------|
|
|    E   E    E    E    E    E      E    E    E    E    E    E
||------------------------------|-------------------------------|
||o--------------(10)------(13)-|-(10)-----------(10)------(13)-|
||----------(10)------(10)------|-----------(10)------(10)------|
||-----(12)---------------------|------(12)---------------------|
||o-----------------------------|-------------------------------|
||------------------------------|-------------------------------|


                                3/8
    E    E    E   E    E    E      E    E    S    S
|------------------------------|----------------------||
|------------------------------|---------------------o||
|-------------9-------12-------|----------------------||
|-------10-------10--------10--|--14h==15---14h=(15)--||
|--12--------------------------|---------------------o||
|------------------------------|----------------------||
|
|   E    E    E   E    E    E      E    E    E
|------------------------------|----------------------||
|-(10)-------------------------|---------------------o||
|----------------(9)------(12)-|----------------------||
|-----------(10)-----(10)------|-(10)-(14)h(15)-------||
|------(12)--------------------|---------------------o||
|------------------------------|----------------------||


 3/4
   E   E    E    E    E    E      E    E    E   E    E    E
|-----------------------------|-------------8-------10----8--|
|----------10--------13---10--|-------10-------10------------|
|-----10--------10------------|--10--------------------------|
|-12--------------------------|------------------------------|
|-----------------------------|------------------------------|
|-----------------------------|------------------------------|
|
|  E   E    E    E    E    E      E    E    E   E    E    E
|-----------------------------|----------------(8)------(10)-|
|--------------(10)------(13)-|-(10)------(10)-----(10)------|
|---------(10)------(10)------|------(10)--------------------|
|----(12)---------------------|------------------------------|
|-----------------------------|------------------------------|
|-----------------------------|------------------------------|


                               3/8
   E    E    E   E    E    E      E    E    S    S
|-----------------------------|---------------------|
|-----------------------------|---------------------|
|------------9-------12-------|---------------------|
|------10-------10--------10--|--14h==15---14h=(15)-|
|-12--------------------------|---------------------|
|-----------------------------|---------------------|
|
|  E    E    E   E    E    E      E    E    E
|-(8)-------------------------|---------------------|
|-----------------------------|---------------------|
|---------------(9)------(12)-|---------------------|
|----------(10)-----(10)------|-(10)-(14)h(15)------|
|-----(12)--------------------|---------------------|
|-----------------------------|---------------------|


 3/4
   E    E    E    E    E    E      E     E      E     E     E      E
|------------------------------|---------------------------------------|
|-----------10--------13---10--|---------------10----------13-----10---|
|------10--------10------------|--------10-----------10----------------|
|-12---------------------------|--12-----------------------------------|
|------------------------------|---------------------------------------|
|------------------------------|---------------------------------------|
|
|  E    E    E    E    E    E      E     E      E     E     E      E
|------------------------------|---------------------------------------|
|---------------(10)------(13)-|-(10)---------------(10)---------(13)--|
|----------(10)------(10)------|--------------(10)--------(10)---------|
|-----(12)---------------------|-------(12)----------------------------|
|------------------------------|---------------------------------------|
|------------------------------|---------------------------------------|
|
| Gtr VI
|  H.                              S S   S  S   S S   S S   S  S   S S
|------------------------------|---5p0h==3--5p==0h3---5p0h==3--5p==0h3-|
|------------------------------|---------------------------------------|
|------------------------------|---------------------------------------|
|------------------------------|---------------------------------------|
|------------------------------|---------------------------------------|
|------------------------------|---------------------------------------|


                                        3/8
    E     E      E    E     E      E       E     E      S   S
|--------------------------------------|-----------------------||
|--------------------------------------|-----------------------||
|----------------9---------12----------|-----------------------||
|--------10----------10-----------10---|--14h===15-----14h(15)-||
|--12----------------------------------|-----------------------||
|--------------------------------------|-----------------------||
|
|   E     E      E    E     E      E       E     E      E
|--------------------------------------|-----------------------||
|-(10)---------------------------------|-----------------------||
|--------------------(9)---------(12)--|-----------------------||
|--------------(10)-------(10)---------|-(10)--(14)h==(15)-----||
|-------(12)---------------------------|-----------------------||
|--------------------------------------|-----------------------||
|
|   S S   S  S   S S  S S   S  S   S S     S S   S  S   S   S
|---5p0h==3--5p==0h3--5p0h==3--5p==0h3-|---5p0h==3--5p==0h==3--||
|--------------------------------------|-----------------------||
|--------------------------------------|-----------------------||
|--------------------------------------|-----------------------||
|--------------------------------------|-----------------------||
|--------------------------------------|-----------------------||


 Breakdown 2
  Dm
 3/4
     PM-----------------|
  E  S   S   S   S   S   S   E   E
|-5--x---x---x---x---x---x----------|
|-6--x---x---x---x---x---x--(0)-(0)-|
|-7-<7>-<7>-<7>-<7>-<7>-<7>--0---0--|
|----------------------------0---0--|
|----------------------------0---0--|
|-----------------------------------|


                                      Am
                                                             3/8
     PM-----------------|               PM--------|
  E  S   S   S   S   S   S   E   E    E S S S S S S  E   E    E  E  E
|-5--x---x---x---x---x---x----------|-----------------------|----------|
|-6--x---x---x---x---x---x--(0)-(0)-|-5-x-x-x-x-x-x-(0)-(0)-|----------|
|-7-<7>-<7>-<7>-<7>-<7>-<7>--0---0--|-5-x-x-x-x-x-x--0---0--|-9-10-(9)-|
|----------------------------0---0--|-7-x-x-x-x-x-x--0---0--|----------|
|----------------------------0---0--|----------------0---0--|----------|
|-----------------------------------|-----------------------|----------|


  Dm
 3/4
   E  S  S  S  S  S  S  S  S E    E  S  S  S  S  S  S  S  S E
|----10h13-13-13-13-13-10-13---|----10h13-13-13-13-13-10------|
|-10-------------------------0-|-10----------------------13-0-|
|-10-------------------------0-|-10-------------------------0-|
|-12-------------------------0-|-12-------------------------0-|
|------------------------------|------------------------------|
|------------------------------|------------------------------|


  Am                             N.C.
                                3/8
   E  S  S  S  S  S  S  S  S E     E    E    E
|------------------------------|-----------------|
|----10h13-13-13-13-13-10----0-|-----------------|
|--9----------------------12-0-|-----------------|
|-10-------------------------0-|-(14)-(15)-(14)--|
|-12---------------------------|---0----0----0---|
|------------------------------|---0----0----0---|


 3/4                                             3/8
  E S S E E E E   E S S E E E E   E S S E E E E   E E E
|---------------|---------------|---------------|--------|
|---------------|---------------|---------------|--------|
|-----------5---|---------------|---------------|--------|
|-0-0-0-0-3---3-|-0-0-0-0---0---|-----------2---|-2-3-x/-|
|---------------|---------3---3-|-0-0-0-0-3---3-|--------|
|---------------|---------------|---------------|--------|


 3/4
   S  S  S  S  E  E  E  E    E  S  S  E  E  E  E
|-------------------------|----------------------|
|-------------------------|----------------------|
|-------------------17----|----------------------|
|-12-12-12-12-12-15----15-|-12-12-12-12-10-12-10-|
|-------------------------|----------------------|
|-------------------------|----------------------|


                       3/8
   E  S  S  E  E E  E   E  E E
|---------------------|--------||
|---------------------|--------||
|----------------9----|-9-10---||
|-------------10---10-|------0-||
|-12-12-12-12---------|--------||
|---------------------|--------||


   Breakdown 3
    Q=168
    G#b5
   4/4
    W          +W           q  H.        W
||-----------|------------|------------|-------||
||o----------|------------|------------|------o||
||--8--------|-(8)--------|-8----------|-------||
||--7--------|-(7)--------|-7----------|-------||
||o-0--------|-(0)--------|-0----------|------o||
||-----------|------------|------------|-------||


  Q  +Q     +Q   S S S S   Q  +Q     +Q   S S S S
|------------------------|------------------------|
|------------------------|------------------------|
|-8--(8)b9--(8)--x-x-x-x-|-8--(8)b9--(8)--x-x-x-x-|
|-7--(7)----(7)--x-x-x-x-|-7--(7)----(7)--x-x-x-x-|
|-0--(0)----(0)--x-x-x-x-|-0--(0)----(0)--x-x-x-x-|
|------------------------|------------------------|


                 PM
                 |-3-|
  Q  +Q     +Q   E E E   Q  +Q     +Q   S S S S
|----------------------|--------------------------|
|----------------------|--------------------------|
|-8--(8)b9--(8)--x-x-x-|-8--(8)b9--(8)--x-x-x-x---|
|-7--(7)----(7)--x-x-x-|-7--(7)----(7)--x-x-x-x---|
|-0--(0)----(0)--x-x-x-|-0--(0)----(0)--x-x-x-x---|
|----------------------|--------------------------|


              A5    G#b5        A5    G#b5
  E E E E E E E E   E E E E E E E E   E E E E E E E E   H     H
|-----------------|-----------------|-----------------|-------------|
|-----------------|-----------------|-----------------|-------------|
|-8-x-x-8-x-x-9-x-|-8-x-x-8-x-x-9-x-|-8-x-x-8-x-x-9-x-|-x\----------|
|-7-x-x-7-x-x-7-x-|-7-x-x-7-x-x-7-x-|-7-x-x-7-x-x-7-x-|-------x\----|
|-0-x-x-0-x-x-0-x-|-0-x-x-0-x-x-0-x-|-0-x-x-0-x-x-0-x-|-------------|
|-----------------|-----------------|-----------------|-------------|


    G#b5            A5   G#b5            A5
    Gtrs IV, V, VI
    E E  E  E E  E  q    E E  E  E E  E  q
||---------------------|--------------------|
||o--------------------|--------------------|
||--8-------8-------9--|-8-------8-------9--|
||--7-7-(7)-7-7-(7)-7--|-7-7-(7)-7-7-(7)-7--|
||o-0-0--0--0-0--0--0--|-0-0--0--0-0--0--0--|
||---------------------|--------------------|


  G#b5            A5     F#b5      Ab5
                       PM   PM   PM   PM        PM--|
  E E  E  E E  E  q    S  E S  E S  E S  E  +S  S S  S
|--------------------|------------------------------------||
|--------------------|-----------------------------------o||
|-8-------8-------9--|-x-11-x-11-x-14-x-14-(14)-----------||
|-7-7-(7)-7-7-(7)-7--|-x-10-x-10-x-13-x-13-(13)-0-0-(0)---||
|-0-0--0--0-0--0--0--|-0--9-0--9-0-12-0-12-(12)-0-0--0---o||
|--------------------|------------------------------------||


  N.C.
 2/2
  S S S S S S S S S S S S S S S S   S S S S S S S S S S S S S S S S
|---------------------------------|---------------------------------|
|---------------------------------|---------------------------------|
|-8-0-0-8-0-0-8-0-0-8-0-0-9-0-9-0-|-8-0-0-8-0-0-8-0-0-8-0-0-9-0-9-0-|
|---------------------------------|---------------------------------|
|---------------------------------|---------------------------------|
|---------------------------------|---------------------------------|


                                      F#b5      Ab5
                                    PM   PM   PM   PM        PM--|
  S S S S S S S S S S S S S S S S   S  E S  E S  E S  E  +S  S S  S
|---------------------------------|----------------------------------|
|---------------------------------|----------------------------------|
|-8-0-0-8-0-0-8-0-0-8-0-0-9-0-9-0-|-x-11-x-11-x-14-x-14-(14)---------|
|---------------------------------|-x-10-x-10-x-13-x-13-(13)-0-0-(0)-|
|---------------------------------|-0--9-0--9-0-12-0-12-(12)-0-0--0--|
|---------------------------------|----------------------------------|


  N.C.
   S S S  S S S  S S S  S S S  S S  S S    S S S  S S S  S S S  S S S   S  S   S  S
|---------------------------------------|-------------------------------------------|
|---------------------------------------|-------------------------------------------|
|-20-0-0-20-0-0-20-0-0-20-0-0-21-0-21-0-|-20-0-0-20-0-0-20-0-0-20-0-0-<21>-0-<21>-0-|
|---------------------------------------|-------------------------------------------|
|---------------------------------------|-------------------------------------------|
|---------------------------------------|-------------------------------------------|


                                     H=H
                                     C/F#
                                      PM------|
   S S S  S S S  S S S  S S S  Q      e  e  e  e  E  E  E  E
|----------------------------------|---------------------------||
|----------------------------------|---------------------------||
|-20-0-0-20-0-0-20-0-0-20-0-0-21\--|--------------9--9--9--9---||
|----------------------------------|-10-10-10-10-10-10-10-10---||
|----------------------------------|--9--9--9--9--9--9--9--9---||
|----------------------------------|---------------------------||


 Out-Chorus
  Q=175
  Asus2
  Gtr IV
   E   E   E    E    E    E    E    E      E    E      E      E    E    E    E    E
|--------------------------------------|---------------------------------------------|
|--------------------------------------|---------------------------------------------|
|-14p=12-------14p==12--------14p==12--|-------14p====12----------14p==12--------14--|
|---------14-------------14------------|--14-----------------14-------------14-------|
|--------------------------------------|---------------------------------------------|
|--------------------------------------|---------------------------------------------|
|
| Gtr V
|  Q       E    E    E    E    E    E      E    E      E      E    E    E    E    E
|--------------------------------------|---------------------------------------------|
|--------------------------------------|---------------------------------------------|
|--------(14)p(12)------(14)p(12)------|-(14)p(12)----------(14)p(12)------(14)p(12)-|
|------------------(14)-----------(14)-|-------------(14)-------------(14)-----------|
|--------------------------------------|---------------------------------------------|
|--------------------------------------|---------------------------------------------|
|
| Gtr III
|                                          |------3-------|
|  H                 H                     Q       Q      Q        Q         Q
|--------------------0-----------------|---------------------------------------------|
|-(0)----------------0-----------------|---------------------------0-----------------|
|--2-----------------2-----------------|------------------2--------2-----------------|
|--2-----------------2-----------------|-----------2---------------------------------|
|--0-----------------0-----------------|---0---------------------------------0-------|
|--------------------------------------|---------------------------------------------|


  C                                         Cadd9
    E    E    E    E    E    E    E    E      E    E    E    E    E    E      E      E
|------------15-------------15------------|--15-------------15---------------15---------|
|--12h==13--------12h==13--------12h==13--|-------12h==13--------12h==13------------13--|
|-----------------------------------------|---------------------------------------------|
|-----------------------------------------|---------------------------------------------|
|-----------------------------------------|---------------------------------------------|
|-----------------------------------------|---------------------------------------------|
|
|   E    E    E    E    E    E    E    E      E    E    E    E    E    E      E      E
|---------------------(15)-----------(15)-|-----------(15)-----------(15)---------------|
|-----------(12)h(13)------(12)h(13)------|-(12)h(13)------(12)h(13)--------(12)h==(13)-|
|------(14)-------------------------------|---------------------------------------------|
|-(14)------------------------------------|---------------------------------------------|
|-----------------------------------------|---------------------------------------------|
|-----------------------------------------|---------------------------------------------|
|
|                                                                 |------3-------|
|   E    E    E    E    H                     E    E    E    E    Q       Q      Q
|-----------------------------------------|---------------------------------------------|
|-----------------------1-----------------|-------------3---------3---------------------|
|-------------0---------0-----------------|-------------0-----------------0-------------|
|--------2---------2----3-----------------|--------2---------2-------------------2------|
|---3-------------------------------------|---3-----------------------------------------|
|-----------------------------------------|---------------------------------------------|


  F
    E    E      E      E    E    E    E    E      E    E      E      E    E    E    E    E
|---------------------------------------------|---------------------------------------------|
|---------------------------------------------|---------------------------------------------|
|---9h==10-----12-----------9h==10---12-------|---9h==10-----12-----------9h==10---12-------|
|---------------------10------------------10--|---------------------10------------------10--|
|---------------------------------------------|---------------------------------------------|
|---------------------------------------------|---------------------------------------------|
|
|   E    E      E      E    E    E    E    E      E    E      E      E    E    E    E    E
|-(15)----------------------------------------|---------------------------------------------|
|------(13)-----------------------------------|---------------------------------------------|
|-------------------------(12)----------------|-(12)--------------------(12)----------------|
|-------------(14)h==(15)-----------(14)h(15)-|-------------(14)h==(15)-----------(14)h(15)-|
|------------------------------(15)-----------|------(15)--------------------(15)-----------|
|---------------------------------------------|---------------------------------------------|
|
|   |------3-------|                              |------3-------|
|   Q       Q      Q        H                     Q       Q      Q        H
|---------------------------------------------|---------------------------------------------|
|---------------------------------------------|---------------------------------------------|
|---------------------------2-----------------|---------------------------2-----------------|
|-----------3---------------3-----------------|-----------3---------------3-----------------|
|-----------0---------------------------------|-----------0---------------------------------|
|---1--------------1--------------------------|---1--------------1--------------------------|


  Cadd9                                     G
    E    E    E    E    E    E    E    E      E    E    E    E    E    E      E      E
|-----------------------------------------|-----------------------------------------15--|
|------------13-------------13--------13--|------------15--------15----------17---------|
|---9h==10---------9h==10---------9-------|--10h==12--------12--------12----------------|
|-----------------------------------------|---------------------------------------------|
|-----------------------------------------|---------------------------------------------|
|-----------------------------------------|---------------------------------------------|
|
|   E    E    E    E    E    E    E    E      E    E    E    E    E    E      E      E
|-----------------------------------------|---------------------------------------------|
|-----------------------------------------|----------------------------------------(17)-|
|-(12)----------------(17)-----------(17)-|------(17)-----------(19)--------(19)--------|
|-----------(14)h(15)------(14)h(15)------|-(14)------(15)h(17)------(17)---------------|
|------(15)-------------------------------|---------------------------------------------|
|-----------------------------------------|---------------------------------------------|
|
|                                                                 |------3-------|
|   E    E    E    E    Q         E    E      E    E    E    E    Q       Q      Q
|-----------------------------------------|---------------------------------------------|
|-------------3---------3---------3----3--|-------------3---------3-------3------3------|
|-------------0-------------------0----0--|--------0--------------0-------0------0------|
|--------2---------2--------------2----2--|---0--------------0--------------------------|
|---3-------------------------------------|---------------------------------------------|
|-----------------------------------------|---------------------------------------------|


  Asus2
   E   E   E    E    E    E    E    E      W
|-17--15-------17---15--------17---15--|--------------------------|
|---------17-------------17------------|--17----------------------|
|--------------------------------------|--------------------------|
|--------------------------------------|--------------------------|
|--------------------------------------|--------------------------|
|--------------------------------------|--------------------------|
|
|  Q       E    E    E    E    E    E      E    E      H.
|--------(17)-(15)------(17)-(15)------|-(17)-(15)----------------|
|------------------(17)-----------(17)-|-------------(17)---------|
|--------------------------------------|--------------------------|
|--------------------------------------|--------------------------|
|--------------------------------------|--------------------------|
|--------------------------------------|--------------------------|
|
|                                          |------3-------|
|  H                 H                     Q       Q      Q Q  Q
|--------------------0-----------------|--------------------------|
|-(0)----------------0-----------------|--------------------0-----|
|--2-----------------2-----------------|------------------2-2-----|
|--2-----------------2-----------------|-----------2--------------|
|--0-----------------0-----------------|---0-------------------0--|
|--------------------------------------|--------------------------|


  C                                         Cadd9
    E    E    E    E    E    E    E    E      Q             +Q     +Q     +Q
|------------15-------------15------------|--15b17---------(15)---(15)---(15)----|
|--12h==13--------12h==13--------12h==13--|--------------------------------------|
|-----------------------------------------|--------------------------------------|
|-----------------------------------------|--------------------------------------|
|-----------------------------------------|--------------------------------------|
|-----------------------------------------|--------------------------------------|
|
|  +E    E    E    E    E    E    E    E      E      E      +Q     +Q     +Q
|----------------(15)-----------(15)------|--------(15)b17-(15)---(15)---(15)----|
|-(17)-(12)h(13)------(12)h(13)------(12)h|=(13)---------------------------------|
|-----------------------------------------|--------------------------------------|
|-----------------------------------------|--------------------------------------|
|-----------------------------------------|--------------------------------------|
|-----------------------------------------|--------------------------------------|
|
|                                                                   |----3----|
|   E    E    E    E    H                     E      E       E  E   Q  Q      Q
|-----------------------------------------|--------------------------------------|
|-----------------------1-----------------|------------------3------3------------|
|-------------0---------0-----------------|------------------0---------0---------|
|--------2---------2----3-----------------|----------2----------2-------------2--|
|---3-------------------------------------|---3----------------------------------|
|-----------------------------------------|--------------------------------------|


  F
   Q.           S  S  Q.                 S  S     H                      H
|-15-----------17p15-12-----------------15p13-|-----------------------------------|
|---------------------------------------------|--15-------------------------------|
|---------------------------------------------|-------------------------17--------|
|---------------------------------------------|-----------------------------------|
|---------------------------------------------|-----------------------------------|
|---------------------------------------------|-----------------------------------|
|
|  Q      Q.               S    S    Q           +E    S      S    H          Q
|-------(15)-------------(17)p(15)-(12)-------|-(12)-(15)p==(13)------------------|
|---------------------------------------------|------------------(15)-------------|
|---------------------------------------------|-----------------------------(17)--|
|---------------------------------------------|-----------------------------------|
|---------------------------------------------|-----------------------------------|
|---------------------------------------------|-----------------------------------|
|
|  |----3----|                                    |---------3---------|
|  Q  Q      Q        H                           Q       Q           Q  H
|---------------------------------------------|-----------------------------------|
|---------------------------------------------|-----------------------------------|
|---------------------2-----------------------|--------------------------2--------|
|-----3---------------3-----------------------|-----------3--------------3--------|
|-----0---------------------------------------|-----------0-----------------------|
|--1---------1--------------------------------|---1-------------------1-----------|


  Cadd9
    W                      W
|----------------------|-(17)b19----------------------||
|----------------------|------------------------------||
|----------------------|------------------------------||
|--19------------------|--17--------------------------||
|----------------------|------------------------------||
|----------------------|------------------------------||
|
|  +Q      H.             +Q         H.
|----------------------|-----------(17)b19------------||
|----------------------|------------------------------||
|-(17)-----------------|------------------------------||
|--------(19)----------|-(19)------(17)---------------||
|----------------------|------------------------------||
|----------------------|------------------------------||
|
|   E  E   E  E Q  E E     E     E   E     E Q  +Q
|----------------------|------------------------------||
|----------3----3--3-3-|-------------3-------4--(4)\--||
|----------0-------0-0-|---------2-----------7--(7)\--||
|------2------2----2-2-|---0---------------0----------||
|---3------------------|------------------------------||
|----------------------|------------------------------||


 Outro
  N.C.
 4/4
                                                              |----3----|
   E  E  E E E E E E   E E E E E E E E    E  E  E E E E E E   q q q q q Q
|--------------------|-----------------|--------------------|--------------|
|--------------------|-----------------|--------------------|--------------|
|-------12-----9-----|-----7-----5-----|-------12-----9-----|-7-7-7--------|
|----10------7---7---|---5-----3---3---|----10------7---7---|-x-x-x-5-5-5--|
|-12-------8-------8-|-7-----5-------5S|=12-------8-------8-|-5-5-5-x-x-x--|
|--------------------|-----------------|--------------------|-------3-3-3--|


   E  E  E E E E E E   E E E E E E E E    E  E  E E E E E E   q  H.
|--------------------|-----------------|--------------------|----------*|
|--------------------|-----------------|--------------------|----------*|
|-------12-----9-----|-----7-----5-----|-------12-----9-----|-7--------*|
|----10------7---7---|---5-----3---3---|----10------7---7---|-x--------*|
|-12-------8-------8-|-7-----5-------5S|=12-------8-------8-|-7--------*|
|--------------------|-----------------|--------------------|----------*|



Duration Legend
---------------
W - whole; H - half; Q - quarter; E - 8th; S - 16th; T - 32nd; X - 64th; a - acciaccatura
+ - note tied to previous; . - note dotted; .. - note double dotted
Uncapitalized letters represent notes that are staccato (1/2 duration)
Irregular groupings are notated above the duration line
Duration letters will always appear directly above the note/fret number it represents the
duration for.  Duration letters with no fret number below them represent rests.  Multi-
bar rests are notated in the form Wxn, where n is the number of bars to rest for.  Low
melody durations appear below the staff

Tablature Legend
----------------
 h   - hammer-on
 p   - pull-off
 b   - bend
 pb  - pre-bend
 r   - bend release (if no number after the r, then release immediately)
 /\  - slide into or out of (from/to "nowhere")
 s   - legato slide
 S   - shift slide
 - natural harmonic
[n]  - artificial harmonic
n(n) - tapped harmonic
 ~   - vibrato
 tr  - trill
 T   - tap
 TP  - trem. picking
 PM  - palm muting
\n/  - tremolo bar dip; n = amount to dip
 \n  - tremolo bar down
 n/  - tremolo bar up
/n\  - tremolo bar inverted dip
 =   - hold bend; also acts as connecting device for hammers/pulls
 <> - volume swell (louder/softer)
 x   - on rhythm slash represents muted slash
 o   - on rhythm slash represents single note slash

Misc Legend
-----------
 |  - bar
||  - double bar
||o - repeat start
o|| - repeat end
*|  - double bar (ending)
 :  - bar (freetime)
 $  - Segno
 &  - Coda
Tempo markers -  = BPM(8/16=s8/s16), where s8 = swing 8ths, s16 = swing 16ths
comments
print report bad tab
7 comments total. Showing first comments.
0 reply
and1streeter wrote on December 18 2006, 09:07 am

you should put all of a single guitars parts together to make it easier to read.

+1 reply
XhooperX wrote on May 6 2007, 09:16 pm

how is there like six guitars your on crack

0 reply
SINOWred wrote on May 15 2007, 08:57 pm

its 1 guitar

I want to post or [tab]
guest
You may want to rate the tab now too:
select rating
Please do not post tabs as comments. Select "correction" instead!