Oops, an error
Loading. Please wait.

Fcpsitsgepgepgep Tab

ver2
ver2

Whole song

Interactive

More versions @911Tabs.com
2,033 views 3 this week
1 commentread comment
1 2 3 4 5
excellent!
x 1
Autoscroll
+/-
esc
set tempo
stop
Contributor
NEW! There's an official Ultimate Guitar app which is ideal
for learning songs when you're away from computer. Get the app
WARNING: You are trying to view
                                    content from Ultimate-Guitar.com
                                    in an unauthorized application,
                                    which is prohibited.

                                    Please use an official Ultimate
                                    Guitar Tabs application for iPhone,
                                    iPad or Android to access legitimate
                                    chords, guitar, bass, and drum tabs
                                    from Ultimate-Guitar.com database.

                                    Type "ultimate guitar tabs" in Apple
                                    App Store's or Android Market's
                                    search to find the application.
#----------------------------------PLEASE NOTE---------------------------------#
#This file is the author's own work and represents their interpretation of the #
#song. You may only use this file for private study, scholarship, or research. #
#------------------------------------------------------------------------------#

F.C.P.S.I.T.S.G.E.P.G.E.P.G.E.P.
As recorded by The Fall of Troy

Transcribed by Ara Yessayan
        

Music by The Fall of Troy

Gtr I (E A D G B E) - 'Untitled'
Gtr II (E A D G B E) - 'Untitled'

 Intro
  Q=146
  C5/A         A5/F                G5/E      F5/D
 4/4
  Gtr I
   E   E    E  E  E   E   E   E    E  E   E  E  E   E   E   E
|--------------------------------|-----------------------------|
|--------------------------------|-----------------------------|
|-12-(12)-(12)-9-(9)-(9)-(9)-(9)-|-7-(7)-(7)-5-(5)-(5)-(5)-(5)-|
|-10-(10)-(10)-7-(7)-(7)-(7)-(7)-|-5-(5)-(5)-3-(3)-(3)-(3)-(3)-|
|-12-(12)-(12)-8-(8)-(8)-(8)-(8)-|-7-(7)-(7)-5-(5)-(5)-(5)-(5)-|
|--------------------------------|-----------------------------|


  C5/A         A5/F      G5/E                N.C.
   E   E    E  E  E   E  E  E     E   E   E  E +E    +E   Q
|------------------------------|-------------7-(7)b8r(7)-(7)\---|
|------------------------------|--------------------------8\----|
|-12-(12)-(12)-9-(9)-(9)-7-(7)-|-(7)-(7)-(7)--------------------|
|-10-(10)-(10)-7-(7)-(7)-5-(5)-|-(5)-(5)-(5)--------------------|
|-12-(12)-(12)-8-(8)-(8)-7-(7)-|-(7)-(7)-(7)--------------------|
|------------------------------|--------------------------------|


  C5/A         A5/F                G5/E      F5/D
   E   E    E  E  E   E   E   E    E  E   E  E  E   E   E   E
|--------------------------------|-----------------------------|
|--------------------------------|-----------------------------|
|-12-(12)-(12)-9-(9)-(9)-(9)-(9)-|-7-(7)-(7)-5-(5)-(5)-(5)-(5)-|
|-10-(10)-(10)-7-(7)-(7)-(7)-(7)-|-5-(5)-(5)-3-(3)-(3)-(3)-(3)-|
|-12-(12)-(12)-8-(8)-(8)-(8)-(8)-|-7-(7)-(7)-5-(5)-(5)-(5)-(5)-|
|--------------------------------|-----------------------------|


  C5/A         A5/F      G5/E
   E   E    E  E  E   E  E  E     E   E   E  E H
|------------------------------|--------------------|
|------------------------------|--------------------|
|-12-(12)-(12)-9-(9)-(9)-7-(7)-|-(7)-(7)-(7)--------|
|-10-(10)-(10)-7-(7)-(7)-5-(5)-|-(5)-(5)-(5)--------|
|-12-(12)-(12)-8-(8)-(8)-7-(7)-|-(7)-(7)-(7)--------|
|------------------------------|--------------------|


  $
  C5/A         A5/F                G5/E      F5/D
   E   E    E  E  E   E   E   E    E  E   E  E  E   E   E   E
|--------------------------------|-----------------------------|
|--------------------------------|-----------------------------|
|-12-(12)-(12)-9-(9)-(9)-(9)-(9)-|-7-(7)-(7)-5-(5)-(5)-(5)-(5)-|
|-10-(10)-(10)-7-(7)-(7)-(7)-(7)-|-5-(5)-(5)-3-(3)-(3)-(3)-(3)-|
|-12-(12)-(12)-8-(8)-(8)-(8)-(8)-|-7-(7)-(7)-5-(5)-(5)-(5)-(5)-|
|--------------------------------|-----------------------------|


  C5/A         A5/F      G5/E                N.C.
   E   E    E  E  E   E  E  E     E   E   E  E +E    +E   Q
|------------------------------|-------------7-(7)b8r(7)-(7)\--|
|------------------------------|--------------------------8\---|
|-12-(12)-(12)-9-(9)-(9)-7-(7)-|-(7)-(7)-(7)-------------------|
|-10-(10)-(10)-7-(7)-(7)-5-(5)-|-(5)-(5)-(5)-------------------|
|-12-(12)-(12)-8-(8)-(8)-7-(7)-|-(7)-(7)-(7)-------------------|
|------------------------------|-------------------------------|


  C5/A         A5/F                G5/E      F5/D
   E   E    E  E  E   E   E   E    E  E   E  E  E   E   E   E
|--------------------------------|-----------------------------|
|--------------------------------|-----------------------------|
|-12-(12)-(12)-9-(9)-(9)-(9)-(9)-|-7-(7)-(7)-5-(5)-(5)-(5)-(5)-|
|-10-(10)-(10)-7-(7)-(7)-(7)-(7)-|-5-(5)-(5)-3-(3)-(3)-(3)-(3)-|
|-12-(12)-(12)-8-(8)-(8)-(8)-(8)-|-7-(7)-(7)-5-(5)-(5)-(5)-(5)-|
|--------------------------------|-----------------------------|


  C5/A         A5/F      G5/E
   E   E    E  E  E   E  E  E     E   E   E  E H
|------------------------------|--------------------||
|------------------------------|--------------------||
|-12-(12)-(12)-9-(9)-(9)-7-(7)-|-(7)-(7)-(7)--------||
|-10-(10)-(10)-7-(7)-(7)-5-(5)-|-(5)-(5)-(5)--------||
|-12-(12)-(12)-8-(8)-(8)-7-(7)-|-(7)-(7)-(7)--------||
|------------------------------|--------------------||


 Verse
  C5/A         A5/F                G5/E      F5/D
   E   E    E  E  E   E   E   E    E  E   E  E  E   E   E   E
|--------------------------------|-----------------------------|
|--------------------------------|-----------------------------|
|-12-(12)-(12)-9-(9)-(9)-(9)-(9)-|-7-(7)-(7)-5-(5)-(5)-(5)-(5)-|
|-10-(10)-(10)-7-(7)-(7)-(7)-(7)-|-5-(5)-(5)-3-(3)-(3)-(3)-(3)-|
|-12-(12)-(12)-8-(8)-(8)-(8)-(8)-|-7-(7)-(7)-5-(5)-(5)-(5)-(5)-|
|--------------------------------|-----------------------------|


  C5/A         A5/F      G5/E                N.C.
   E   E    E  E  E   E  E  E     E   E   E  E +E    +E   Q
|------------------------------|-------------7-(7)b8r(7)-(7)\--|
|------------------------------|--------------------------8\---|
|-12-(12)-(12)-9-(9)-(9)-7-(7)-|-(7)-(7)-(7)-------------------|
|-10-(10)-(10)-7-(7)-(7)-5-(5)-|-(5)-(5)-(5)-------------------|
|-12-(12)-(12)-8-(8)-(8)-7-(7)-|-(7)-(7)-(7)-------------------|
|------------------------------|-------------------------------|


  C5/A         A5/F                G5/E      F5/D
   E   E    E  E  E   E   E   E    E  E   E  E  E   E   E   E
|--------------------------------|-----------------------------|
|--------------------------------|-----------------------------|
|-12-(12)-(12)-9-(9)-(9)-(9)-(9)-|-7-(7)-(7)-5-(5)-(5)-(5)-(5)-|
|-10-(10)-(10)-7-(7)-(7)-(7)-(7)-|-5-(5)-(5)-3-(3)-(3)-(3)-(3)-|
|-12-(12)-(12)-8-(8)-(8)-(8)-(8)-|-7-(7)-(7)-5-(5)-(5)-(5)-(5)-|
|--------------------------------|-----------------------------|


  C5/A         A5/F      G5/E            N.C.
   E   E    E  E  E   E  E  E     E   E   Q   Q   E  E
|------------------------------|-----------------12-12-|
|------------------------------|---------12------------|
|-12-(12)-(12)-9-(9)-(9)-7-(7)-|-(7)-(7)-----12--------|
|-10-(10)-(10)-7-(7)-(7)-5-(5)-|-(5)-(5)---------------|
|-12-(12)-(12)-8-(8)-(8)-7-(7)-|-(7)-(7)---------------|
|------------------------------|-----------------------|


  C5/A         A5/F                G5/E      F5/D
   E   E    E  E  E   E   E   E    E  E   E  E  E   E   E   E
|--------------------------------|-----------------------------|
|--------------------------------|-----------------------------|
|-12-(12)-(12)-9-(9)-(9)-(9)-(9)-|-7-(7)-(7)-5-(5)-(5)-(5)-(5)-|
|-10-(10)-(10)-7-(7)-(7)-(7)-(7)-|-5-(5)-(5)-3-(3)-(3)-(3)-(3)-|
|-12-(12)-(12)-8-(8)-(8)-(8)-(8)-|-7-(7)-(7)-5-(5)-(5)-(5)-(5)-|
|--------------------------------|-----------------------------|


  C5/A         A5/F      G5/E
   E   E    E  E  E   E  E  E     E   E   E  E H
|------------------------------|--------------------|
|------------------------------|--------------------|
|-12-(12)-(12)-9-(9)-(9)-7-(7)-|-(7)-(7)-(7)--------|
|-10-(10)-(10)-7-(7)-(7)-5-(5)-|-(5)-(5)-(5)--------|
|-12-(12)-(12)-8-(8)-(8)-7-(7)-|-(7)-(7)-(7)--------|
|------------------------------|--------------------|


  C5/A         A5/F                G5/E      F5/D
   E   E    E  E  E   E   E   E    E  E   E  E  E   E   E   E
|--------------------------------|-----------------------------|
|--------------------------------|-----------------------------|
|-12-(12)-(12)-9-(9)-(9)-(9)-(9)-|-7-(7)-(7)-5-(5)-(5)-(5)-(5)-|
|-10-(10)-(10)-7-(7)-(7)-(7)-(7)-|-5-(5)-(5)-3-(3)-(3)-(3)-(3)-|
|-12-(12)-(12)-8-(8)-(8)-(8)-(8)-|-7-(7)-(7)-5-(5)-(5)-(5)-(5)-|
|--------------------------------|-----------------------------|


  C5/A         A5/F      G5/E                Dsus2
                                             <
   E   E    E  E  E   E  E  E     E   E   E  E +Q.   E
|------------------------------|-----------------------||
|------------------------------|-------------5-(5)-----||
|-12-(12)-(12)-9-(9)-(9)-7-(7)-|-(7)-(7)-(7)-7-(7)-----||
|-10-(10)-(10)-7-(7)-(7)-5-(5)-|-(5)-(5)-(5)-----------||
|-12-(12)-(12)-8-(8)-(8)-7-(7)-|-(7)-(7)-(7)-----------||
|------------------------------|-----------------------||


   Chorus
    $$
    N.C.
     E E E  E E E  E E   E  E E E  E E E  E
||---------------------|--------------------|
||o-10-8---10-8---10-8-|---10-8---10-8---10-|
||-------9------9------|-9------9------9----|
||---------------------|--------------------|
||o--------------------|--------------------|
||---------------------|--------------------|


   E  E  E  E  E  E  E  E    E  E  E  E  E  E  E  E
|-------15-------15-------|-15-------15-------15-----|
|-12h13----12h13----12h13-|----12h13----12h13----13--|
|-------------------------|--------------------------|
|-------------------------|--------------------------|
|-------------------------|--------------------------|
|-------------------------|--------------------------|


  E E E E E E E E   E E E E E E E E
|-----3-------3---|-----3-------3---|
|-5-6-----5-6-----|-5-6-----5-6-----|
|-------5-------5-|-------5-------5-|
|-----------------|-----------------|
|-----------------|-----------------|
|-----------------|-----------------|


                    1.                    2.
                              To Coda D.S.
  E E E E E E E E   E E  E E  E E  Q       W
|-----8-----8---8-|-----10---10---10---||-10----||
|-5h6---5h6---5---|-6s8----8----8-----o||-------||
|-----------------|--------------------||-------||
|-----------------|--------------------||-------||
|-----------------|-------------------o||-------||
|-----------------|--------------------||-------||


   Bridge
    F/D                                        C
   3/4                                                      3/8
    Gtr II
     E  E  E  E E  E    E  E  E  E E  E     E   E E  E E E    E  E E  3x
||--------------8----|-------------8----|--(8)-------------|----------||
||o-------10------10-|-------10------10-|-(10)---------8---|---------o||
||-----10----10------|----10----10------|-(10)----9------9-|----10-9--||
||--12---------------|-12---------------|------10---10-----|-10-------||
||o------------------|------------------|---0--------------|---------o||
||-------------------|------------------|------------------|----------||


  F/D                                        C
 3/4                                                    3/8
                                                         Gtr I
   E  E  E  E E  E    E  E  E  E E  E     E  E E E E E    E  E E
|-------------8----|-------------8----|--(8)-------3---|---------|
|-------10------10-|-------10------10-|-(10)---5-----5-|---------|
|----10----10------|----10----10------|-(10)-5---5-----|----10-9-|
|-12---------------|-12---------------|----------------|-10------|
|------------------|------------------|---0------------|---------|
|------------------|------------------|----------------|---------|


  F/D                                           C/A
 3/4                                                                  3/8
                  PM|                    PM|                    PM|
   E S S S S S S  E  E    E S S S S S S  E  E    E S S S S S S  E  E    E  E E
|----------------------|----------------------|----------------------|---------|
|-10-x-x-x-x-x-x-------|-10-x-x-x-x-x-x-------|----------------------|---------|
|-10-x-x-x-x-x-x-10-10-|-10-x-x-x-x-x-x-10-10-|--9-x-x-x-x-x-x-------|----10-9-|
|-12-x-x-x-x-x-x-12-12-|-12-x-x-x-x-x-x-12-12-|-10-x-x-x-x-x-x-10-10-|-12------|
|----------------------|----------------------|-12-x-x-x-x-x-x-12-12-|---------|
|----------------------|----------------------|----------------------|---------|


  F/DN.C.                            F/DN.C.
 3/4
   E  S  S  S  S  S  S  S  S  S  S    E  S  S  S  S  S  S  S  S  S S
|----10h13-13-13-13-13-10h13p10----|----10h13-13-13-13-13-10-13-10s8-|
|-10----------------------------13-|-10------------------------------|
|-10-------------------------------|-10------------------------------|
|-12-------------------------------|-12------------------------------|
|----------------------------------|---------------------------------|
|----------------------------------|---------------------------------|


  C/AN.C.
                                    3/8
   E  S  S  S  S  S  S  S  S  S  S    E  E E
|----------------------------------|---------|
|----10h13-13-13-13-13-10h13p10----|---------|
|--9----------------------------12-|----10-9-|
|-10-------------------------------|-12------|
|-12-------------------------------|---------|
|----------------------------------|---------|


  N.C.
 3/4                                             3/8
  E S S E E E E   E S S E E E E   E S S E E E E   E E E
|---------------|---------------|---------------|-------|
|---------------|---------------|---------------|-------|
|-----------5---|---------------|---------------|-------|
|---------3---3-|---------------|-----------2---|-2-3---|
|-5-5-5-5-------|-5-5-5-5-3-5-3-|-0-0-0-0-3---3-|-----3-|
|---------------|---------------|---------------|-------|


 3/4                                                             3/8
   E  S  S  E  E  E  E    E  S  S  E  E  E  E   E S S E  E E  E   E  E  E
|----------------------|----------------------|-----------------|---------|
|----------------13----|----------------------|-----------------|---------|
|-------------10----10-|----------------------|------------9----|-9-10----|
|-12-12-12-12----------|-12-12-12-12-10-12-10-|-7-7-7-7-10---10-|------10-|
|----------------------|----------------------|-----------------|---------|
|----------------------|----------------------|-----------------|---------|


 Breakdown
  N.C.
 4/4
  W          +W           +W            Wx7
|-0--------|-(0)--------|-(0)---------|--------|
|-0--------|-(0)--------|-(0)---------|--------|
|-8--------|-(8)--------|-(8)/--------|--------|
|-0--------|-(0)--------|-(0)---------|--------|
|-7--------|-(7)--------|-(7)/--------|--------|
|-0--------|-(0)--------|-(0)---------|--------|


  N.C.
  E E E E E E E E   E E E E E E E E   E E E E E E E E   E E E E E E E E
|-----------------|-----------------|-----------------|-----------------|
|-----------------|-----------------|-----------------|-----------------|
|-x-x-x-x-x-x-x-x-|-x-x-x-x-x-x-x-x-|-x-x-x-x-x-x-x-x-|-x-x-x-x-x-x-x-x-|
|-----------------|-----------------|-----------------|-----------------|
|-x-x-x-x-x-x-x-x-|-x-x-x-x-x-x-x-x-|-x-x-x-x-x-x-x-x-|-x-x-x-x-x-x-x-x-|
|-----------------|-----------------|-----------------|-----------------|


  E E E E E E E E   E E E E E E E E   E E E E E E E E   E E E E +Q   Q
|-----------------|-----------------|-----------------|-----------------||
|-----------------|-----------------|-----------------|-----------------||
|-x-x-x-x-x-x-x-x-|-x-x-x-x-x-x-x-x-|-x-x-x-x-x-x-x-x-|-x-x-8-8-(8)s=9--||
|-----------------|-----------------|-----------------|-----------------||
|-x-x-x-x-x-x-x-x-|-x-x-x-x-x-x-x-x-|-x-x-x-x-x-x-x-x-|-x-x-7-7-(7)s=8--||
|-----------------|-----------------|-----------------|-----------------||


 Solo
  N.C.
  E E E E E E Q    E E E E E E Q    E E E E E E Q    S  E S  E S  E S  E  +Q
|----------------|----------------|----------------|---------------------------|
|----------------|----------------|----------------|---------------------------|
|-8-----8-----9--|-8-----8-----9--|-8-----8-----9--|-x-11-x-11-x-14-x-14-(14)--|
|----------------|----------------|----------------|---------------------------|
|-7-----7-----8--|-7-----7-----8--|-7-----7-----8--|-x-10-x-10-x-13-x-13-(13)--|
|---0-0---0-0----|---0-0---0-0----|---0-0---0-0----|---------------------------|


               ~~
  E E E E E E  Q    E E E E E E  Q
|-----------------|-------------<5>--|
|-----------------|-------------<5>--|
|-8-----8-----/9--|-8-----8----------|
|-----------------|------------------|
|-7-----7---------|-7-----7----------|
|---0-0---0-0-----|---0-0---0-0------|


  E E E E E E Q    S  E S  E S  E S  E  +Q
|----------------|---------------------------|
|----------------|---------------------------|
|-8-----8-----9--|-x-11-x-11-x-14-x-14-(14)--|
|----------------|---------------------------|
|-7-----7-----8--|-x-10-x-10-x-13-x-13-(13)--|
|---0-0---0-0----|---------------------------|


  S S S S S S S S S S S S S S S S   S S S S S S S S S S S S S S S S
|---------------------------------|---------------------------------|
|---------------------------------|---------------------------------|
|-8-0-0-8-0-0-8-0-0-9-0-0-9-0-9-0-|-8-0-0-8-0-0-8-0-0-8-0-0-9-0-9-0-|
|---------------------------------|---------------------------------|
|---------------------------------|---------------------------------|
|---------------------------------|---------------------------------|


  S S S S S S S S S S S S S S S S   S  E S  E S  E S  E  +Q
|---------------------------------|----------------------------|
|---------------------------------|----------------------------|
|-8-0-0-8-0-0-8-0-0-8-0-0-9-0-9-0-|-x-11-x-11-x-14-x-14-(14)---|
|---------------------------------|----------------------------|
|---------------------------------|-x-10-x-10-x-13-x-13-(13)---|
|---------------------------------|----------------------------|


   S S S  S S S  S S S  S S S  S S  S S
|---------------------------------------|
|---------------------------------------|
|-20-0-0-20-0-0-20-0-0-21-0-0-21-0-21-0-|
|---------------------------------------|
|---------------------------------------|
|---------------------------------------|


   S S S  S S S  S S S  S S S  S S  S S
|---------------------------------------|
|---------------------------------------|
|-20-0-0-20-0-0-20-0-0-20-0-0-21-0-21-0-|
|---------------------------------------|
|---------------------------------------|
|---------------------------------------|


                                                 D.S.S. al Coda
   S S S  S S S  S S S  S S S  S S  S S    E  E  E  E  E  E  E  E
|---------------------------------------|-------------------------||
|---------------------------------------|-------------------------||
|-20-0-0-20-0-0-20-0-0-20-0-0-21-0-21-0-|-11-11-11-11-14-14-14-14-||
|---------------------------------------|-------------------------||
|---------------------------------------|-10-10-10-10-13-13-13-13-||
|---------------------------------------|-------------------------||


 Out-Chorus
  &
   E E E  E E E  E E   E  E E E  E E E E
|--------------------|-------------------|
|-10-8---10-8---10-8-|---10-8---10-8-----|
|------9------9------|-9------9------9-9-|
|--------------------|-------------------|
|--------------------|-------------------|
|--------------------|-------------------|


                                               ~~
   E  E  E  E  E  E  E  E    E  E  E  E  E  E  Q
|-------15-------15-------|-15-------15-------17--|
|-12h13----12h13----12h13-|----12h13----12h13-----|
|-------------------------|-----------------------|
|-------------------------|-----------------------|
|-------------------------|-----------------------|
|-------------------------|-----------------------|


  E E E E E E E E   E E E E E E E E   E E E E E E E E    W
|-----3-------3---|-----3-------3---|-----8---8---8---|-10----|
|-5-6-----5-6-----|-5-6-----5-6-----|-5h6---6---6---6-|-------|
|-------5-------5-|-------5-------5-|-----------------|-------|
|-----------------|-----------------|-----------------|-------|
|-----------------|-----------------|-----------------|-------|
|-----------------|-----------------|-----------------|-------|


 Outro
  C5/A         A5/F                G5/E      F5/D
   E   E    E  E  E   E   E   E    E  E   E  E  E   E   E   E
|--------------------------------|-----------------------------|
|--------------------------------|-----------------------------|
|-12-(12)-(12)-9-(9)-(9)-(9)-(9)-|-7-(7)-(7)-5-(5)-(5)-(5)-(5)-|
|-10-(10)-(10)-7-(7)-(7)-(7)-(7)-|-5-(5)-(5)-3-(3)-(3)-(3)-(3)-|
|-12-(12)-(12)-8-(8)-(8)-(8)-(8)-|-7-(7)-(7)-5-(5)-(5)-(5)-(5)-|
|--------------------------------|-----------------------------|


  C5/A         A5/F      G5/E                N.C.
   E   E    E  E  E   E  E  E     E   E   E  E +E    +E   Q
|------------------------------|-------------7-(7)b8r(7)-(7)\--|
|------------------------------|--------------------------8\---|
|-12-(12)-(12)-9-(9)-(9)-7-(7)-|-(7)-(7)-(7)-------------------|
|-10-(10)-(10)-7-(7)-(7)-5-(5)-|-(5)-(5)-(5)-------------------|
|-12-(12)-(12)-8-(8)-(8)-7-(7)-|-(7)-(7)-(7)-------------------|
|------------------------------|-------------------------------|


  C5/A         A5/F                G5/E      F5/D
   E   E    E  E  E   E   E   E    E  E   E  E  E   E   E   E
|--------------------------------|-----------------------------|
|--------------------------------|-----------------------------|
|-12-(12)-(12)-9-(9)-(9)-(9)-(9)-|-7-(7)-(7)-5-(5)-(5)-(5)-(5)-|
|-10-(10)-(10)-7-(7)-(7)-(7)-(7)-|-5-(5)-(5)-3-(3)-(3)-(3)-(3)-|
|-12-(12)-(12)-8-(8)-(8)-(8)-(8)-|-7-(7)-(7)-5-(5)-(5)-(5)-(5)-|
|--------------------------------|-----------------------------|


  C5/A         A5/F      G5/E
   E   E    E  E  E   E  E  E     E   E   E  E H
|------------------------------|--------------------*|
|------------------------------|--------------------*|
|-12-(12)-(12)-9-(9)-(9)-7-(7)-|-(7)-(7)-(7)--------*|
|-10-(10)-(10)-7-(7)-(7)-5-(5)-|-(5)-(5)-(5)--------*|
|-12-(12)-(12)-8-(8)-(8)-7-(7)-|-(7)-(7)-(7)--------*|
|------------------------------|--------------------*|



Duration Legend
---------------
W - whole; H - half; Q - quarter; E - 8th; S - 16th; T - 32nd; X - 64th; a - acciaccatura
+ - note tied to previous; . - note dotted; .. - note double dotted
Uncapitalized letters represent notes that are staccato (1/2 duration)
Irregular groupings are notated above the duration line
Duration letters will always appear directly above the note/fret number it represents the
duration for.  Duration letters with no fret number below them represent rests.  Multi-
bar rests are notated in the form Wxn, where n is the number of bars to rest for.  Low
melody durations appear below the staff

Tablature Legend
----------------
 h   - hammer-on
 p   - pull-off
 b   - bend
 pb  - pre-bend
 r   - bend release (if no number after the r, then release immediately)
 /\  - slide into or out of (from/to "nowhere")
 s   - legato slide
 S   - shift slide
<n> - natural harmonic
[n]  - artificial harmonic
n(n) - tapped harmonic
 ~   - vibrato
 tr  - trill
 T   - tap
 TP  - trem. picking
 PM  - palm muting
\n/  - tremolo bar dip; n = amount to dip
 \n  - tremolo bar down
 n/  - tremolo bar up
/n\  - tremolo bar inverted dip
 =   - hold bend; also acts as connecting device for hammers/pulls
 <> - volume swell (louder/softer)
 x   - on rhythm slash represents muted slash
 o   - on rhythm slash represents single note slash

Misc Legend
-----------
 |  - bar
||  - double bar
||o - repeat start
o|| - repeat end
*|  - double bar (ending)
 :  - bar (freetime)
 $  - Segno
 &  - Coda
Tempo markers - <E/E./Q/Q./H/H.> = BPM(8/16=s8/s16), where s8 = swing 8ths, s16 = swing 16ths

comments
We did not receive enough feedback on this tab! Please rate:
print report bad tab
1 2 3 4 5
1 comment total.
+1 reply
Sam Rulez D00d wrote on August 11 2008, 04:16 pm

perfect. way more complete than ver 1!

I want to post or [tab]
guest
You may want to rate the tab now too:
select rating
Please do not post tabs as comments. Select "correction" instead!