Oops, an error
Loading. Please wait.

Ghostship Part 2 Bass Tab

ver1
ver1

Whole song

Interactive

More versions @911Tabs.com
685 views 6 this week
no commentswrite comment
1 2 3 4 5
please rate
Autoscroll
+/-
esc
set tempo
stop
Contributor
Hey! There's an official Ultimate Guitar app which is ideal
for learning songs when you're away from computer. Get the app
WARNING: You are trying to view
                                    content from Ultimate-Guitar.com
                                    in an unauthorized application,
                                    which is prohibited.

                                    Please use an official Ultimate
                                    Guitar Tabs application for iPhone,
                                    iPad or Android to access legitimate
                                    chords, guitar, bass, and drum tabs
                                    from Ultimate-Guitar.com database.

                                    Type "ultimate guitar tabs" in Apple
                                    App Store's or Android Market's
                                    search to find the application.
#----------------------------------PLEASE NOTE---------------------------------#
#This file is the author's own work and represents their interpretation of the #
#song. You may only use this file for private study, scholarship, or research. #
#------------------------------------------------------------------------------#

GHOSTSHIP PART II (Bassline)
As recorded by The Fall of Troy
(From the 2004 Album GHOSTSHIP DEMOS)


	

Music by The Fall of Troy

Gtr I (E A D G) - 'Tim'
Gtr II (B F# B E G# C#) - 'Andrew'

  Q=250
 16/8
  Gtr I
  W                             E E E   E E Q  H      E E E E E
|-----------------------------|---------------------------------|
|-----------------------------|---------------------------------|
|-----------------------------|----------------0----------------|
|-----------------------------|-------------3-------------------|
|
| Gtr II
| E E E E E E E E Q  Q  Q  Q    E E S S E E Q  Q  E E E E E E E
|-----------------------------|---------------------------------|
|-----------------------------|---------------------------------|
|-----------------------------|---------------------------------|
|-----------------------------|---------------------------------|
|-----------------------------|---3-----------------------------|
|-----------------2--2--2--2--|-1---3-3-3-3-1--1--1-3-1-1-3-1-1-|


  E E E E E Q  H      E E E E E   E E E E E Q  H      E E E E E
|-------------------------------|-------------------------------|
|-------------------------------|-------------------------------|
|--------------0----------------|--------------0----------------|
|-----------3-------------------|-----------3-------------------|
|
| E E E E E Q  Q  E E E E E E E   E E E E E Q  Q  E E E E E E E
|-------------------------------|-------------------------------|
|-------------------------------|-------------------------------|
|-------------------------------|-------------------------------|
|-------------------------------|-------------------------------|
|-------------------------------|-------------------------------|
|-3-1-1-3-3-1--1--1-3-1-1-3-1-1-|-3-1-1-3-3-1--1--1-3-1-1-3-1-1-|


  E E E E E Q  H      E E E E E   E E   E E E Q  Q.    Q   E Q   E
|-------------------------------|-----------------------------------|
|-------------------------------|----------------------2---2-3---3--|
|--------------0----------------|----------------0------------------|
|-----------3-------------------|-------------3---------------------|
|
| E E E E E Q  Q  E E E E E E E   E S S E E E Q  Q   E E E E E E E
|-------------------------------|-----------------------------------|
|-------------------------------|----------------------1---1---1----|
|-------------------------------|-----------------------------------|
|-------------------------------|-----------------------------------|
|-------------------------------|-----------------------------------|
|-3-1-1-3-3-1--1--1-3-1-1-3-1-1-|-3-3-3-3-3-3-1--1---1-3-1---1-3-1--|


  Q   E Q   Q  Q.    Q   E Q   E   Q     E Q  Q  Q.    Q   E Q   E
|--------------------------------|---------0------------------------|
|-2---2-3------------2---2-3---3-|-2-----2--------------------------|
|--------------0-----------------|---------------------3---3-5---5--|
|-----------3--------------------|------------3--1------------------|
|
| E E E E E Q  Q   E E E E E E E   E S S E Q  Q  Q   E E E E E E E
|--------------------------------|----------------------------------|
|-1---1---1----------1---1---1---|---------------------1-----1------|
|--------------------------------|---------5------------------------|
|--------------------------------|----------------------------------|
|--------------------------------|----------------------------------|
|---1-3-1-3-1--1---1-3-1---1-3-1-|-3-3-3-3-3--1--1---1-3-1-1-3-1-1--|


  Q   E Q   Q  Q.    Q   E Q   E   Q     E Q   Q  Q.    Q   E Q   E
|--------------------------------|-----------------------------------|
|--------------------------------|---------2------------2---2-3---3--|
|-3---3-5------------3---3-5---5-|-3-----3--------0------------------|
|-----------3--1-----------------|-------------3---------------------|
|
| E E E E E Q  Q   E E E E E E E   E S S E E E Q  Q   E E E E E E E
|--------------------------------|-----------------------------------|
|-1-----1------------1-----1-----|----------------------1---1---1----|
|--------------------------------|-----------5-----------------------|
|--------------------------------|-----------------------------------|
|--------------------------------|-----------------------------------|
|-3-1-1-3-1-1--1---1-3-1-1-3-1-0-|-3-3-3-3-3-3-1--1---1-3-1---1-3-1--|


  Q   E Q   Q  Q.    Q   E Q   E   Q     E Q   Q  Q.    Q   E Q   E
|--------------------------------|---------0-------------------------|
|-2---2-3------------2---2-3---3-|-2-----2---------------------------|
|--------------0-----------------|----------------------3---3-5---5--|
|-----------3--------------------|-------------3--1------------------|
|
| E E E E E Q  Q   E E E E E E E   E S S E E E Q  Q   E E E E E E E
|--------------------------------|-----------------------------------|
|-1---1---1----------1---1---1---|----------------------1-----1------|
|--------------------------------|-----------5-----------------------|
|--------------------------------|-----------------------------------|
|--------------------------------|-----------------------------------|
|---1-3-1-3-1--1---1-3-1---1-3-1-|-3-3-3-3-3-3-1--1---1-3-1-1-3-1-1--|


                                  5/8           3/4
  Q   E Q   Q  Q.    Q   E Q   E   Q     E Q     W          W
|--------------------------------|-------------|----------|----------|
|--------------------------------|---------2---|----------|----------|
|-3---3-5------------3---3-5---5-|-3-----3-----|----------|----------|
|-----------3--1-----------------|-------------|----------|----------|
|
| E E E E E Q  Q   E E E E E E E   E S S E E E   Q  Q  Q    Q  Q  Q
|--------------------------------|-------------|----------|----------|
|-1---1---1----------1---1---1---|-------------|----------|----------|
|--------------------------------|-------------|----------|----------|
|--------------------------------|-------------|----------|----------|
|--------------------------------|-------------|----2--2--|-2--2--2--|
|---1-3-1-3-1--1---1-3-1---1-3-1-|-3-3-3-3-3-3-|-1--------|----------|


  Gtr II
  Q  Q  Q    Q  Q  Q    Q  Q  Q    Q  Q  Q    Q  Q  Q    Q  Q  Q
|----------|----------|----------|----------|----------|----------|
|----------|----------|----------|----------|----------|----------|
|----------|----------|----------|----------|----------|-------1--|
|----------|----------|----------|----------|----------|----------|
|-2--2--2--|-2--2--2--|-2--2--2--|-2--2--2--|-2--2--2--|-2--2-----|
|----------|----------|----------|----------|----------|----------|


  Q=225
  Gtr I
  E. S +E  E Q    E. S +E  E Q    E. S +E  E Q
|---------------|---------------|---------------|
|---------------|---------------|------------0--|
|-0--0-(0)-0-3--|-0--0-(0)-0-2--|-0--0-(0)-0----|
|---------------|---------------|---------------|
|
| Gtr II
| E. S  E  E Q    E. S  E  E Q    E. S  E  E Q
|---------------|---------------|---------------|
|-1-------------|-1-------------|-1-------------|
|---------------|---------------|---------------|
|-------4-------|-------4-------|-------4-------|
|---------------|---------------|---------------|
|-1--1-----1-3--|-1--1-----1-3--|-1--1-----1-3--|


  E. S +E  E Q    E. S +E  E Q    E. S +E  E Q
|---------------|---------------|---------------|
|---------------|---------------|---------------|
|-0--0-(0)-0-3--|-0--0-(0)-0-3--|-0--0-(0)-0-2--|
|---------------|---------------|---------------|
|
| E. S  E  E Q    E. S  E  E Q    E. S  E  E Q
|---------------|---------------|---------------|
|-1-------------|-1-------------|-1-------------|
|---------------|---------------|---------------|
|-------4-------|-------4-------|-------4-------|
|---------------|---------------|---------------|
|-1--1-----1-3--|-1--1-----1-3--|-1--1-----1-3--|


  E. S +E  E Q    E.   S +E  E Q    E. S +E  E Q
|---------------|--------------0--|---------------|
|------------0--|-----------------|---------------|
|-0--0-(0)-0----|-0----0-(0)-0----|-0--0-(0)-0-3--|
|---------------|-----------------|---------------|
|
| E. S  E  E Q    E  S S  E  E Q    E. S  E  E Q
|---------------|-----------------|---------------|
|-1-------------|-----------------|-1-------------|
|---------------|-----------------|---------------|
|-------4-------|--------------2--|-------4-------|
|---------------|-----------------|---------------|
|-1--1-----1-3--|-3--3-3--3--3-3--|-1--1-----1-3--|


  E. S +E  E Q    E. S +E  E Q    E. S +E  E Q
|---------------|---------------|-----------------|
|---------------|------------0--|-----------------|
|-0--0-(0)-0-2--|-0--0-(0)-0----|-0--0-(0)-0-3----|
|---------------|---------------|-----------------|
|
| E. S  E  E Q    E. S  E  E Q    E. S  E  E Q
|---------------|---------------|-----------------|
|-1-------------|-1-------------|-1---------------|
|---------------|---------------|-----------------|
|-------4-------|-------4-------|-------4---------|
|---------------|---------------|-----------------|
|-1--1-----1-3--|-1--1-----1-3--|-1--1-----1-3----|


  E. S +E  E Q    E. S +E  E Q    E. S +E  E Q
|---------------|---------------|---------------|
|---------------|---------------|------------0--|
|-0--0-(0)-0-3--|-0--0-(0)-0-2--|-0--0-(0)-0----|
|---------------|---------------|---------------|
|
| E. S  E  E Q    E. S  E  E Q    E. S  E  E Q
|---------------|---------------|---------------|
|-1-------------|-1-------------|-1-------------|
|---------------|---------------|---------------|
|-------4-------|-------4-------|-------4-------|
|---------------|---------------|---------------|
|-1--1-----1-3--|-1--1-----1-3--|-1--1-----1-3--|


                 4/4
  H.              E  E   +E     E H
|---------------|-----------------2----|
|---------------|----------------------|
|-3-------------|-0--0---(0)----0------|
|---------------|----------------------|
|
| E  E +E  E Q    E.   S +S  E.   H
|---------------|----------------------|
|---------------|----------------------|
|---------------|----------------------|
|-2----------2--|----------------------|
|---------------|-----------------4----|
|-3--1-(1)-0-3--|-1----1-(1)-0----5----|


  Q.          E +Q   Q    E  E   +E     E H
|-5-----------7-(7)--5--|----------------------|
|-----------------------|-----------------5----|
|-----------------------|-3--3---(3)----3------|
|-----------------------|----------------------|
|
| E. S +S  E.    Q   Q    E.   S +S  E.   H
|-----------------------|----------------------|
|-----------------------|----------------------|
|-----------------------|----------------------|
|-----------------------|----------------------|
|----------------4------|-----------------4----|
|-1--1-(1)-0-----5---1--|-1----1-(1)-0----5----|


  Q.          E +Q    Q    E  E   +E     E  H
|------------------------|-----------------------|
|--------------------10--|-----------------10----|
|-7-----------8-(8)------|-8--8---(8)----8-------|
|------------------------|-----------------------|
|
| E. S +S  E.    Q    Q    E.   S +S  E.    H
|------------------------|-----------------------|
|------------------------|-----------------------|
|------------------------|-----------------------|
|------------------------|-----------------------|
|----------------4-------|------------------4----|
|-1--1-(1)-0-----5----1--|-1----1-(1)-0-----5----|


   Q.           E  +Q    Q
|-----------------------10--|
|-12-----------10-(10)------|
|---------------------------|
|---------------------------|
|
|  E. S +S  E.      Q    Q
|---------------------------|
|---------------------------|
|---------------------------|
|---------------------------|
|-------------------4-------|
|--1--1-(1)-0-------5----1--|


 6/4                                     4/4
   S  S  S  S  E  E  Q   E  E  E  E E E   E  E   +E     E H
|---------------------------------------|----------------------|
|---------------------------------------|-----------------7----|
|---------------------------------------|----------------------|
|-10-10-10-10-10-10-10--10-10-12-10-8---|-5--5---(5)----5------|
|
|  E     E     E  E  Q   E  E  E  E Q     E.   S +S  E.   H
|---------------------------------------|----------------------|
|---------------------------------------|----------------------|
|---------------------------------------|----------------------|
|---------------------------------------|----------------------|
|--------------------4--------------4---|-----------------4----|
|--1-----1-----1--1--3---1--1--1--1-3---|-1----1-(1)-0----5----|


  Q.          E +Q   Q    E  E   +E     E H
|-5-----------7-(7)--5--|----------------------|
|-----------------------|-----------------5----|
|-----------------------|-3--3---(3)----3------|
|-----------------------|----------------------|
|
| E. S +S  E.    Q   Q    E.   S +S  E.   H
|-----------------------|----------------------|
|-----------------------|----------------------|
|-----------------------|----------------------|
|-----------------------|----------------------|
|----------------4------|-----------------4----|
|-1--1-(1)-0-----5---1--|-1----1-(1)-0----5----|


  Q.          E +Q    Q    E  E   +E     E  H
|------------------------|-----------------------|
|--------------------10--|-----------------10----|
|-7-----------8-(8)------|-8--8---(8)----8-------|
|------------------------|-----------------------|
|
| E. S +S  E.    Q    Q    E.   S +S  E.    H
|------------------------|-----------------------|
|------------------------|-----------------------|
|------------------------|-----------------------|
|------------------------|-----------------------|
|----------------4-------|------------------4----|
|-1--1-(1)-0-----5----1--|-1----1-(1)-0-----5----|


   Q.           E  +Q    Q
|-----------------------10--|
|-12-----------10-(10)------|
|---------------------------|
|---------------------------|
|
|  E. S +S  E.      Q    Q
|---------------------------|
|---------------------------|
|---------------------------|
|---------------------------|
|-------------------4-------|
|--1--1-(1)-0-------5----1--|


 6/4                                     3/4
   S  S  S  S  E  E  Q   E  E  E  E E E   W          W
|---------------------------------------|----------|-----------|
|---------------------------------------|----------|-----------|
|---------------------------------------|----------|-----------|
|-10-10-10-10-10-10-10--10-10-12-10-8---|----------|-----------|
|
|  E     E     E  E  Q   E  E  E  E Q     Q  Q  Q    Q  Q  Q
|---------------------------------------|----------|-----------|
|---------------------------------------|----------|-----------|
|---------------------------------------|----------|-----------|
|---------------------------------------|----------|-----------|
|--------------------4--------------4---|-2--2--2--|-2--2--2---|
|--1-----1-----1--1--3---1--1--1--1-3---|----------|-----------|


                               Q=225
  W          W                 E. S +E  E Q    E. S +E  E Q    E. S +E  E Q
|----------|-----------------|---------------|---------------|----------------|
|----------|-----------------|---------------|---------------|------------0---|
|----------|-----------------|------------3--|-0--0-(0)-0-2--|-0--0-(0)-0-----|
|----------|-----------------|-5--5-(5)-5----|---------------|----------------|
|
| Q  Q  Q    S S S S E E E E   E. S  E  E Q    E. S  E  E Q    E. S  E  E Q
|----------|-----------------|---------------|---------------|----------------|
|----------|-3-----------3---|-1-------------|-1-------------|-1--------------|
|----------|-----------------|---------------|---------------|----------------|
|----------|---4-4-4-4-4---4-|-------4-------|-------4-------|-------4--------|
|-2--2--2--|-----------------|---------------|---------------|----------------|
|----------|-----------------|-1--1-----1-3--|-1--1-----1-3--|-1--1-----1-3---|


  E. S +E  E Q    E. S +E  E Q    E. S +E  E Q
|---------------|---------------|---------------|
|---------------|---------------|---------------|
|-0--0-(0)-0-3--|-0--0-(0)-0-3--|-0--0-(0)-0-2--|
|---------------|---------------|---------------|
|
| E. S  E  E Q    E. S  E  E Q    E. S  E  E Q
|---------------|---------------|---------------|
|-1-------------|-1-------------|-1-------------|
|---------------|---------------|---------------|
|-------4-------|-------4-------|-------4-------|
|---------------|---------------|---------------|
|-1--1-----1-3--|-1--1-----1-3--|-1--1-----1-3--|


  E. S +E  E Q    E.   S +E  E Q     E. S +E  E Q
|---------------|--------------0---|-----------------|
|------------0--|------------------|-----------------|
|-0--0-(0)-0----|-0----0-(0)-0-----|-0--0-(0)-0-3----|
|---------------|------------------|-----------------|
|
| E. S  E  E Q    E  E    E  E E E   E. S  E  E Q
|---------------|------------------|-----------------|
|-1-------------|---------1--------|-1---------------|
|---------------|------------------|-----------------|
|-------4-------|-2------------2---|-------4---------|
|---------------|------------------|-----------------|
|-1--1-----1-3--|-3--1----3--1-3-1-|-1--1-----1-3----|


  E. S +E  E Q    E. S +E  E Q    E. S +E  E Q
|---------------|---------------|---------------|
|---------------|------------0--|---------------|
|-0--0-(0)-0-2--|-0--0-(0)-0----|-0--0-(0)-0-3--|
|---------------|---------------|---------------|
|
| E. S  E  E Q    E. S  E  E Q    E. S  E  E Q
|---------------|---------------|---------------|
|-1-------------|-1-------------|-1-------------|
|---------------|---------------|---------------|
|-------4-------|-------4-------|-------4-------|
|---------------|---------------|---------------|
|-1--1-----1-3--|-1--1-----1-3--|-1--1-----1-3--|


  E. S +E  E Q    E. S +E  E Q    E. S +E  E Q
|---------------|---------------|---------------|
|---------------|---------------|------------0--|
|-0--0-(0)-0-3--|-0--0-(0)-0-2--|-0--0-(0)-0----|
|---------------|---------------|---------------|
|
| E. S  E  E Q    E. S  E  E Q    E. S  E  E Q
|---------------|---------------|---------------|
|-1-------------|-1-------------|-1-------------|
|---------------|---------------|---------------|
|-------4-------|-------4-------|-------4-------|
|---------------|---------------|---------------|
|-1--1-----1-3--|-1--1-----1-3--|-1--1-----1-3--|


                 4/4
  H.              E  E   +E     E H
|---------------|-----------------2----|
|---------------|----------------------|
|-3-------------|-0--0---(0)----0------|
|---------------|----------------------|
|
| E  E +E  E Q    E.   S +S  E.   H
|---------------|----------------------|
|---------------|----------------------|
|---------------|----------------------|
|-2----------2--|----------------------|
|---------------|-----------------4----|
|-3--1-(1)-0-3--|-1----1-(1)-0----5----|


  Q.          E +Q   Q    E  E   +E     E H
|-5-----------7-(7)--5--|----------------------|
|-----------------------|-----------------5----|
|-----------------------|-3--3---(3)----3------|
|-----------------------|----------------------|
|
| E. S +S  E.    Q   Q    E.   S +S  E.   H
|-----------------------|----------------------|
|-----------------------|----------------------|
|-----------------------|----------------------|
|-----------------------|----------------------|
|----------------4------|-----------------4----|
|-1--1-(1)-0-----5---1--|-1----1-(1)-0----5----|


  Q.          E +Q    Q    E  E   +E     E  H       Q.           E  +Q    Q
|------------------------|-----------------------|-----------------------10--|
|--------------------10--|-----------------10----|-12-----------10-(10)------|
|-7-----------8-(8)------|-8--8---(8)----8-------|---------------------------|
|------------------------|-----------------------|---------------------------|
|
| E. S +S  E.    Q    Q    E.   S +S  E.    H       E. S +S  E.      Q    Q
|------------------------|-----------------------|---------------------------|
|------------------------|-----------------------|---------------------------|
|------------------------|-----------------------|---------------------------|
|------------------------|-----------------------|---------------------------|
|----------------4-------|------------------4----|-------------------4-------|
|-1--1-(1)-0-----5----1--|-1----1-(1)-0-----5----|--1--1-(1)-0-------5----1--|


 6/4
   S  S  S  S  E  E  Q   E  E  E  E E E
|---------------------------------------|
|---------------------------------------|
|---------------------------------------|
|-10-10-10-10-10-10-10--10-10-12-10-8---|
|
|  E     E     E  E  Q   E  E  E  E Q
|---------------------------------------|
|---------------------------------------|
|---------------------------------------|
|---------------------------------------|
|--------------------4--------------4---|
|--1-----1-----1--1--3---1--1--1--1-3---|


 4/4
  E  E   +E     E H      Q.          E +Q   Q
|----------------------|-5-----------7-(7)--5--|
|-----------------7----|-----------------------|
|----------------------|-----------------------|
|-5--5---(5)----5------|-----------------------|
|
| E.   S +S  E.   H      E. S +S  E.    Q   Q
|----------------------|-----------------------|
|----------------------|-----------------------|
|----------------------|-----------------------|
|----------------------|-----------------------|
|-----------------4----|----------------4------|
|-1----1-(1)-0----5----|-1--1-(1)-0-----5---1--|


  E  E   +E     E H      Q.          E +Q    Q
|----------------------|------------------------|
|-----------------5----|--------------------10--|
|-3--3---(3)----3------|-7-----------8-(8)------|
|----------------------|------------------------|
|
| E.   S +S  E.   H      E. S +S  E.    Q    Q
|----------------------|------------------------|
|----------------------|------------------------|
|----------------------|------------------------|
|----------------------|------------------------|
|-----------------4----|----------------4-------|
|-1----1-(1)-0----5----|-1--1-(1)-0-----5----1--|


  E  E   +E     E  H       Q.           E  +Q    Q
|-----------------------|-----------------------10--|
|-----------------10----|-12-----------10-(10)------|
|-8--8---(8)----8-------|---------------------------|
|-----------------------|---------------------------|
|
| E.   S +S  E.    H       E. S +S  E.      Q    Q
|-----------------------|---------------------------|
|-----------------------|---------------------------|
|-----------------------|---------------------------|
|-----------------------|---------------------------|
|------------------4----|-------------------4-------|
|-1----1-(1)-0-----5----|--1--1-(1)-0-------5----1--|


 6/4                                     3/4
   S  S  S  S  E  E  Q   E  E  E  E E E   W          W          W
|---------------------------------------|----------|----------|----------|
|---------------------------------------|----------|----------|----------|
|---------------------------------------|----------|----------|----------|
|-10-10-10-10-10-10-10--10-10-12-10-8---|----------|----------|----------|
|
|  E     E     E  E  Q   E  E  E  E Q     Q  Q  Q    Q  Q  Q    Q  Q  Q
|---------------------------------------|----------|----------|----------|
|---------------------------------------|----------|----------|----------|
|---------------------------------------|----------|----------|----------|
|---------------------------------------|----------|----------|----------|
|--------------------4--------------4---|-2--2--2--|-2--2--2--|-2--2--2--|
|--1-----1-----1--1--3---1--1--1--1-3---|----------|----------|----------|


                    Q=225
  W                 E. S +E  E Q
|-----------------|---------------|
|-----------------|---------------|
|-----------------|------------3--|
|-----------------|-5--5-(5)-5----|
|
| S S S S E E E E   E. S  E  E Q
|-----------------|---------------|
|-3-----------3---|-1-------------|
|-----------------|---------------|
|---4-4-4-4-4---4-|-------4-------|
|-----------------|---------------|
|-----------------|-1--1-----1-3--|


  E. S +E  E Q    E. S +E  E Q    E. S +E  E Q
|---------------|---------------|----------------|
|---------------|------------0--|----------------|
|-0--0-(0)-0-2--|-0--0-(0)-0----|-0--0-(0)-0-3---|
|---------------|---------------|----------------|
|
| E. S  E  E Q    E. S  E  E Q    E. S  E  E Q
|---------------|---------------|----------------|
|-1-------------|-1-------------|-1--------------|
|---------------|---------------|----------------|
|-------4-------|-------4-------|-------4--------|
|---------------|---------------|----------------|
|-1--1-----1-3--|-1--1-----1-3--|-1--1-----1-3---|


  E. S +E  E Q    E. S +E  E Q    E. S +E  E Q
|---------------|---------------|---------------|
|---------------|---------------|------------0--|
|-0--0-(0)-0-3--|-0--0-(0)-0-2--|-0--0-(0)-0----|
|---------------|---------------|---------------|
|
| E. S  E  E Q    E. S  E  E Q    E. S  E  E Q
|---------------|---------------|---------------|
|-1-------------|-1-------------|-1-------------|
|---------------|---------------|---------------|
|-------4-------|-------4-------|-------4-------|
|---------------|---------------|---------------|
|-1--1-----1-3--|-1--1-----1-3--|-1--1-----1-3--|


  E.   S +E  E Q     E. S +E  E Q    E. S +E  E Q
|--------------0---|---------------|-----------------|
|------------------|---------------|-----------------|
|-0----0-(0)-0-----|-0--0-(0)-0-3--|-0--0-(0)-0-2----|
|------------------|---------------|-----------------|
|
| E  E    E  E E E   E. S  E  E Q    E. S  E  E Q
|------------------|---------------|-----------------|
|---------1--------|-1-------------|-1---------------|
|------------------|---------------|-----------------|
|-2------------2---|-------4-------|-------4---------|
|------------------|---------------|-----------------|
|-3--1----3--1-3-1-|-1--1-----1-3--|-1--1-----1-3----|


  E. S +E  E Q    E. S +E  E Q    E. S +E  E Q
|---------------|---------------|---------------|
|------------0--|---------------|---------------|
|-0--0-(0)-0----|-0--0-(0)-0-3--|-0--0-(0)-0-3--|
|---------------|---------------|---------------|
|
| E. S  E  E Q    E. S  E  E Q    E. S  E  E Q
|---------------|---------------|---------------|
|-1-------------|-1-------------|-1-------------|
|---------------|---------------|---------------|
|-------4-------|-------4-------|-------4-------|
|---------------|---------------|---------------|
|-1--1-----1-3--|-1--1-----1-3--|-1--1-----1-3--|


  E. S +E  E Q    E. S +E  E Q    H.
|---------------|---------------|---------------|
|---------------|------------0--|---------------|
|-0--0-(0)-0-2--|-0--0-(0)-0----|-3-------------|
|---------------|---------------|---------------|
|
| E. S  E  E Q    E. S  E  E Q    E  E +E  E Q
|---------------|---------------|---------------|
|-1-------------|-1-------------|---------------|
|---------------|---------------|---------------|
|-------4-------|-------4-------|-2----------2--|
|---------------|---------------|---------------|
|-1--1-----1-3--|-1--1-----1-3--|-3--1-(1)-0-3--|


   H.            +Q    Q    Q    H.
|-11----------|-(11)---9---11--|--------------|
|-------------|----------------|-9------------|
|-------------|----------------|--------------|
|-------------|----------------|--------------|
|
|  Q   E E Q      E  E E E  Q    Q   S S E Q
|-------------|----------------|--------------|
|-------------|----------------|--------------|
|-------------|----------------|--------------|
|-------------|----------------|--------------|
|----------4--|---4----4----4--|-----4--------|
|--1---1-1----|---3--1---3-----|-1---3-3-3-0--|


   H.             H.            +Q     Q    Q
|--------------|-13----------|-(13)---------------|
|-11-----------|-------------|--------14---16-----|
|--------------|-------------|--------------------|
|--------------|-------------|--------------------|
|
|  E  E Q  E E    Q   E E Q      E  E  E E  E E
|--------------|-------------|--------------------|
|--------------|-------------|--------------------|
|--------------|-------------|--------------------|
|--------------|-------------|----------------2---|
|--4----4------|----------4--|---4-----4----4-----|
|--3--1----1-3-|--1---1-1----|---3--1----1----3---|


   H.              H.
|---------------|--------------------|
|---------------|--------------------|
|-14------------|-16-----------------|
|---------------|--------------------|
|
|  Q   S S E Q     Q   E S S S S S S
|---------------|--------------------|
|---------------|--------------------|
|------------5--|--------------------|
|------2--------|--------------------|
|---------------|--------5-3-1---3-1-|
|--1---3-3-3-3--|--3---3-------6-----|


   H.             +Q     Q    Q      H.
|-14-----------|-(14)-------------|---------------|
|--------------|--------14---16---|---------------|
|--------------|------------------|-14------------|
|--------------|------------------|---------------|
|
|  Q   E E E E     E  E  E E  E E    E  E Q  E E
|--------------|------------------|---------------|
|--------------|------------------|---------------|
|--------------|------------------|---------------|
|--------------|------------------|---------------|
|--------------|---4-----4----4---|-------4-------|
|--1---1-1-1-1-|---3--1----1----3-|--1--1----1-1--|


   H.              H.               +H.
|---------------|-16-------------|-(16)-------------|
|---------------|----------------|------------------|
|-16------------|----------------|------------------|
|---------------|----------------|------------------|
|
|  E  E E E E E    Q   E S S E E     E  E E E S S E
|---------------|----------------|------------------|
|---------------|----------------|---1--------------|
|---------------|----------------|------------------|
|---------------|----------------|----------2-------|
|--4----4---4---|------------4---|------------------|
|--3--1---1---1-|--1---1-3-3---1-|---3--1-1---3-3-0-|


   +H.                         W
|-(16)-----------------------|--------------|
|----------------------------|--------------|
|----------------------------|--------------|
|----------------------------|--------------|
|
|   S  S S S +S  E S +S  E S   E E E E E E
|----------------------------|--------------|
|----------------------------|--------------|
|----------------------------|--------------|
|------------------------2---|---2-----2----|
|----------------------------|--------------|
|---3--3-1-3-(3)-3-1-(1)---3-|-1---3-1---3--|


  Q=285
 4/4
   E.  S  +S   E.  E.  S  +S   E.    E.  S  +S   E.  E.  S  +S   E.
|---------------------------------|---------------------------------|
|-16--16-(16)-16--16--16-(16)-16--|-16--16-(16)-14--14--16-(16)-16--|
|---------------------------------|---------------------------------|
|---------------------------------|---------------------------------|
|
|  H               H                 H               H
|---------------------------------|---------------------------------|
|---------------------------------|---------------------------------|
|---------------------------------|---------------------------------|
|---------------------------------|---------------------------------|
|---------------------------------|---------------------------------|
|--1---------------1--------------|--1---------------1--------------|


   E.  S  +S   E.  E.  S  +S   E.    E.  S  +S   E.  E.  S  +S   E.
|---------------------------------|----------------------------------|
|---------------------------------|----------------------------------|
|-14--14-(14)-14--14--14-(14)-14--|-16--16-(16)-16--16--16-(16)-16---|
|---------------------------------|----------------------------------|
|
|  H               H                 H               H
|---------------------------------|----------------------------------|
|---------------------------------|----------------------------------|
|---------------------------------|----------------------------------|
|---------------------------------|----------------------------------|
|---------------------------------|----------------------------------|
|--1---------------1--------------|--1---------------1---------------|


   E.  S  +S   E.  E.  S  +S   E.    E.  S  +S   E.  E.  S  +S   E.
|---------------------------------|---------------------------------|
|-18--18-(18)-18--18--18-(18)-18--|-18--18-(18)---------------------|
|---------------------------------|-------------19--19--21-(21)-21--|
|---------------------------------|---------------------------------|
|
|  H               H                 H               H
|---------------------------------|---------------------------------|
|---------------------------------|---------------------------------|
|---------------------------------|---------------------------------|
|---------------------------------|---------------------------------|
|---------------------------------|---------------------------------|
|--1---------------1--------------|--1---------------1--------------|


   E.  S  +S   E.  E.  S  +S   E.    E.  S  +S   E.      E.  S  +S   E.
|---------------------------------|-------------------------------------|
|---------------------------------|-------------------------------------|
|---------------------------------|-------------------------------------|
|-19--19-(19)-19--19--19-(19)-19--|-21--21-(21)-21------21--21-(21)-21--|
|
|  H               H                 Q      +S   S  S S  E.  S  +S   E.
|---------------------------------|-------------------------------------|
|---------------------------------|-------------------------------------|
|---------------------------------|----------------------5--------------|
|---------------------------------|-------------------------------------|
|---------------------------------|-------------------------------------|
|--1---------------1--------------|--1------(1)--3----3--3---3--(3)--3--|


  Q=305                             Q=310
   E.  S  +S   E.  E.  S  +S   E.    E.  S  +S   E.  E.  S  +S   E.
|---------------------------------|---------------------------------|
|-19--19-(19)-19--19--19-(19)-19--|-19--19-(19)-19--19--19-(19)-19--|
|---------------------------------|---------------------------------|
|---------------------------------|---------------------------------|
|
|  H               H                 H               H
|---------------------------------|---------------------------------|
|---------------------------------|---------------------------------|
|---------------------------------|---------------------------------|
|---------------------------------|---------------------------------|
|---------------------------------|---------------------------------|
|--1---------------1--------------|--1---------------1--------------|


  Q=315
   E.  S  +S   E.  E.  S  +S   E.    E.  S  +S   E.  E.  S  +S   E.
|---------------------------------|---------------------------------|
|-19--19-(19)-19--19--19-(19)-19--|-19--19-(19)-19--19--19-(19)-19--|
|---------------------------------|---------------------------------|
|---------------------------------|---------------------------------|
|
|  H               H                 H               H
|---------------------------------|---------------------------------|
|---------------------------------|---------------------------------|
|---------------------------------|---------------------------------|
|---------------------------------|---------------------------------|
|---------------------------------|---------------------------------|
|--1---------------1--------------|--1---------------1--------------|


   E.  S  +S   E.  E.    S  +S   E.    E.  S  +S   E.  E.    S  +S   E.
|-----------------------------------|-----------------------------------|
|-21--21-(21)-21--21----21-(21)-21--|-21--21-(21)-21--21----21-(21)-21--|
|-----------------------------------|-----------------------------------|
|-----------------------------------|-----------------------------------|
|
|  Q      +S   E. +E  S  S  +Q         Q      +S   E. +E  S  S  +Q
|-----------------------------------|-----------------------------------|
|--------------1--(1)----1--(1)-----|--------------1--(1)----1--(1)-----|
|-----------------------------------|-----------------------------------|
|-----------------------------------|-----------------------------------|
|-----------------------------------|-----------------------------------|
|--1------(1)--1--(1)----1--(1)-----|--1------(1)--1--(1)----1--(1)-----|


   E.  S  +S   E.  E.    S  +S   E.    E.  S  +E     E  H
|-----------------------------------|--------------------------------|
|-21--21-(21)-21--21----21-(21)-21--|-21--21-(21)--------------------|
|-----------------------------------|--------------------------------|
|-----------------------------------|--------------------------------|
|
|  Q      +S   E. +E  S  S  +Q         Q      +S  E.   +E  S S +Q
|-----------------------------------|--------------------------------|
|--------------1--(1)----1--(1)-----|--------------------------------|
|-----------------------------------|--------------------------------|
|-----------------------------------|--------------------------------|
|-----------------------------------|-------------4----(4)---4-(4)---|
|--1------(1)--1--(1)----1--(1)-----|--1------(1)--------------------|


  Q  +S  E. +E  S S +S  E.   E. S +Q      E.   S +Q
|--------------------------|--------------------------|
|-4--(4)-4--(4)---4-(4)-4--|-4--4-(4)-----4----4-(4)--|
|--------------------------|--------------------------|
|--------------------------|--------------------------|
|
| Q  +S  E. +E  S S +Q       E. S +S  E. +E  S S +Q
|--------------------------|--------------------------|
|--------1--(1)---1-(1)----|-1--------1--(1)---1-(1)--|
|--------------------------|--------------------------|
|--------------------------|--------------------------|
|--------------------------|--------------------------|
|-1--(1)-1--(1)---1-(1)----|-3--1-(1)----------3-(3)--|


  Q  +S  E. +E  S S +S  E.   E. S +Q      E.   S +Q
|--------------------------|--------------------------|
|-4--(4)-4--(4)---4-(4)-4--|-4--4-(4)-----6----6-(6)--|
|--------------------------|--------------------------|
|--------------------------|--------------------------|
|
| Q  +S  E. +E  S S +Q       E. S +S  E. +E  S S +Q
|--------------------------|--------------------------|
|--------1--(1)---1-(1)----|-1--------1--(1)---1-(1)--|
|--------------------------|--------------------------|
|--------------------------|--------------------------|
|--------------------------|--------------------------|
|-1--(1)-1--(1)---1-(1)----|-3--1-(1)----------3-(3)--|


  Q  +S  E. +E  S S +S  E.   E. S +Q      E.   S +Q
|--------------------------|--------------------------|
|--------------------------|--------------------------|
|-8--(8)-8--(8)---8-(8)-8--|-8--8-(8)-----8----8-(8)--|
|--------------------------|--------------------------|
|
| Q  +S  E. +E  S S +Q       E. S +S  E. +E  S S +Q
|--------------------------|--------------------------|
|--------1--(1)---1-(1)----|-1--------1--(1)---1-(1)--|
|--------------------------|--------------------------|
|--------------------------|--------------------------|
|--------------------------|--------------------------|
|-1--(1)-1--(1)---1-(1)----|-3--1-(1)----------3-(3)--|


  Q  +S  E. +E  S S +S  E.   E. S +Q      E.   S +Q
|--------------------------|--------------------------|
|--------------------------|--------------------------|
|-8--(8)-8--(8)---8-(8)-8--|-8--8-(8)-----8----8-(8)--|
|--------------------------|--------------------------|
|
| Q  +S  E. +E  S S +Q       E. S +S  E. +E  S S +Q
|--------------------------|--------------------------|
|--------1--(1)---1-(1)----|-1--------1--(1)---1-(1)--|
|--------------------------|--------------------------|
|--------------------------|--------------------------|
|--------------------------|--------------------------|
|-1--(1)-1--(1)---1-(1)----|-3--1-(1)----------3-(3)--|


   Q   +S   E.  +E  S  S  +S   E.    E.  S  +Q      E.    S  +Q
|---------------------------------|-------------------------------|
|---------------------------------|-------------------------------|
|---------------------------------|-------------------------------|
|-10--(10)-10--(10)---10-(10)-10--|-10--10-(10)----10----10-(10)--|
|
|  Q   +S   E.  +E  S  S  +Q         E.  S  +S  E. +E  S  S  +Q
|---------------------------------|-------------------------------|
|-----------1---(1)----1--(1)-----|--1----------1--(1)----1--(1)--|
|---------------------------------|-------------------------------|
|---------------------------------|-------------------------------|
|---------------------------------|-------------------------------|
|--1---(1)--1---(1)----1--(1)-----|--3---1--(1)-----------3--(3)--|


   Q   +S   E.  +E  S  S  +S   E.    E.  S  +Q      E.    S  +Q
|---------------------------------|-------------------------------|
|---------------------------------|-------------------------------|
|---------------------------------|-------------------------------|
|-10--(10)-10--(10)---10-(10)-10--|-10--10-(10)----10----10-(10)--|
|
|  Q   +S   E.  +E  S  S  +Q         E.  S  +S  E. +E  S  S  +Q
|---------------------------------|-------------------------------|
|-----------1---(1)----1--(1)-----|--1----------1--(1)----1--(1)--|
|---------------------------------|-------------------------------|
|---------------------------------|-------------------------------|
|---------------------------------|-------------------------------|
|--1---(1)--1---(1)----1--(1)-----|--3---1--(1)-----------3--(3)--|


  Q  +S  E. +E  E    Q     Q  +S  E. +E  E    Q
|------------------------|------------------------|
|------------------------|------------------------|
|-8--(8)-8--(8)----------|-8--(8)-8--(8)----------|
|------------------------|------------------------|
|
| Q  +S  E. +E  S S +Q     Q  +S  E. +E  S S +Q
|------------------------|------------------------|
|--------1--(1)----------|--------1--(1)----------|
|------------------------|------------------------|
|------------------------|------------------------|
|-----------------2-(2)--|-----------------2-(2)--|
|-1--(1)-1--(1)----------|-1--(1)-1--(1)----------|


  Q  +S  E. +E  E    Q     Q    +S  E. +E  E    Q
|------------------------|--------------------------|
|------------------------|--------------------------|
|-8--(8)-8--(8)----------|-8----(8)-8--(8)----------|
|------------------------|--------------------------|
|
| Q  +S  E. +E  S S +Q     E. S  S  E.  E.   S +Q
|------------------------|--------------------------|
|--------1--(1)----------|-1------------------------|
|------------------------|--------------------------|
|------------------------|-------------------2-(2)--|
|-----------------2-(2)--|--------------------------|
|-1--(1)-1--(1)----------|-3--3--3--3---1----3-(3)--|


  Q  +S  E. +E  S S +S  E.   E. S +Q      E.   S +Q
|--------------------------|--------------------------|
|--------------------------|--------------------------|
|-9--(9)-9--(9)---9-(9)-9--|-9--9-(9)-----9----9-(9)--|
|--------------------------|--------------------------|
|
| Q  +S  E. +E  S S +Q       E. S +S  E. +E  S S +Q
|--------------------------|--------------------------|
|--------1--(1)---1-(1)----|-1--------1--(1)---1-(1)--|
|--------------------------|--------------------------|
|--------------------------|--------------------------|
|--------------------------|--------------------------|
|-1--(1)-1--(1)---1-(1)----|-3--1-(1)----------3-(3)--|


  Q  +S  E. +E  S S +S  E.   E. S +Q      E.    S  +Q
|--------------------------|----------------------------|
|--------------------------|----------------------------|
|-9--(9)-9--(9)---9-(9)-9--|-9--9-(9)----11----11-(11)--|
|--------------------------|----------------------------|
|
| Q  +S  E. +E  S S +Q       E. S +S  E. +E  S  S  +Q
|--------------------------|----------------------------|
|--------1--(1)---1-(1)----|-1--------1--(1)----1--(1)--|
|--------------------------|----------------------------|
|--------------------------|----------------------------|
|--------------------------|----------------------------|
|-1--(1)-1--(1)---1-(1)----|-3--1-(1)-----------3--(3)--|


   Q   +S   E.  +E  S  S  +S   E.    E.  S  +Q      E.    S  +Q
|---------------------------------|-------------------------------|
|---------------------------------|-------------------------------|
|---------------------------------|-------------------------------|
|-13--(13)-13--(13)---13-(13)-13--|-13--13-(13)----13----13-(13)--|
|
|  Q   +S   E.  +E  S  S  +Q         E.  S  +S  E. +E  S  S  +Q
|---------------------------------|-------------------------------|
|-----------1---(1)----1--(1)-----|--1----------1--(1)----1--(1)--|
|---------------------------------|-------------------------------|
|---------------------------------|-------------------------------|
|---------------------------------|-------------------------------|
|--1---(1)--1---(1)----1--(1)-----|--3---1--(1)-----------3--(3)--|


   Q   +S   E.  +E  S  S  +S   E.    E.  S  +Q      E.    S  +Q
|---------------------------------|-------------------------------|
|---------------------------------|-------------------------------|
|---------------------------------|-------------------------------|
|-13--(13)-13--(13)---13-(13)-13--|-13--13-(13)----13----13-(13)--|
|
|  Q   +S   E.  +E  S  S  +Q         E.  S  +S  E. +E  S  S  +Q
|---------------------------------|-------------------------------|
|-----------1---(1)----1--(1)-----|--1----------1--(1)----1--(1)--|
|---------------------------------|-------------------------------|
|---------------------------------|-------------------------------|
|---------------------------------|-------------------------------|
|--1---(1)--1---(1)----1--(1)-----|--3---1--(1)-----------3--(3)--|


   Q   +S   E.  +E  S  S  +S   E.    E.  S  +Q      E.    S  +Q
|---------------------------------|-------------------------------|
|---------------------------------|-------------------------------|
|---------------------------------|-------------------------------|
|-10--(10)-10--(10)---10-(10)-10--|-10--10-(10)----10----10-(10)--|
|
|  Q   +S   E.  +E  S  S  +Q         E.  S  +S  E. +E  S  S  +Q
|---------------------------------|-------------------------------|
|-----------1---(1)----1--(1)-----|--1----------1--(1)----1--(1)--|
|---------------------------------|-------------------------------|
|---------------------------------|-------------------------------|
|---------------------------------|-------------------------------|
|--1---(1)--1---(1)----1--(1)-----|--3---1--(1)-----------3--(3)--|


   Q   +S   E.  +E  S  S  +S   E.    E.  S  +Q      E.    S  +Q
|---------------------------------|-------------------------------|
|---------------------------------|-------------------------------|
|---------------------------------|-------------------------------|
|-10--(10)-10--(10)---10-(10)-10--|-10--10-(10)----10----10-(10)--|
|
|  Q   +S   E.  +E  S  S  +Q         E.  S  +S  E. +E  S  S  +Q
|---------------------------------|-------------------------------|
|-----------1---(1)----1--(1)-----|--1----------1--(1)----1--(1)--|
|---------------------------------|-------------------------------|
|---------------------------------|-------------------------------|
|---------------------------------|-------------------------------|
|--1---(1)--1---(1)----1--(1)-----|--3---1--(1)-----------3--(3)--|


  Q  +S  E. +E  E    Q     Q  +S  E. +E  E    Q
|------------------------|------------------------|
|------------------------|------------------------|
|-8--(8)-8--(8)----------|-8--(8)-8--(8)----------|
|------------------------|------------------------|
|
| Q  +S  E. +E  S S +Q     Q  +S  E. +E  S S +Q
|------------------------|------------------------|
|--------1--(1)----------|--------1--(1)----------|
|------------------------|------------------------|
|------------------------|------------------------|
|-----------------2-(2)--|-----------------2-(2)--|
|-1--(1)-1--(1)----------|-1--(1)-1--(1)----------|


  Q  +S  E. +E  E    Q     Q  +S  E. +E  E    Q
|------------------------|------------------------|
|------------------------|------------------------|
|-8--(8)-8--(8)----------|-8--(8)-8--(8)----------|
|------------------------|------------------------|
|
| Q  +S  E. +E  S S +Q     Q  +S  E. +E  S S +Q
|------------------------|------------------------|
|--------1--(1)----------|------------------------|
|------------------------|------------------------|
|------------------------|--------2--(2)---2-(2)--|
|-----------------2-(2)--|------------------------|
|-1--(1)-1--(1)----------|-3--(3)-3--(3)---3-(3)--|


  Q=305
  E. S +Q     Q    +S  E.   E. S +Q     Q    +S  E.
|-------------------------|-------------------------|
|-------------------------|-------------------------|
|-8--9-(9)----9----(9)-9--|-8--9-(9)----9----(9)-9--|
|-------------------------|-------------------------|
|
| E. S +S  E. E. S +S  E.   E. S +S  E. E. S +S  E.
|-------------------------|-------------------------|
|-------------------------|-------------------------|
|-------------------------|-------------------------|
|-------------------------|-------------------------|
|----------4-----4-(4)----|-4--------4-----4-(4)----|
|-1--1-(1)----1--------0--|-3--1-(1)----1--------0--|


  E. S +Q     Q    +S  E.   H           Q    +S  E.
|-------------------------|-------------------------|
|-------------------------|-7-----------7----(7)-7--|
|-8--9-(9)----9----(9)-9--|-------------------------|
|-------------------------|-------------------------|
|
| E. S +S  E. E. S +S  E.   E. S +S  E. E. S +Q
|-------------------------|-------------------------|
|-------------------------|-------------------------|
|-------------------------|-------------------------|
|-------------------------|-------------------------|
|----------4-----4-(4)----|-4--------4-----4-(4)----|
|-1--1-(1)----1--------0--|-3--1-(1)----3-----------|


  E. S +Q     Q    +S  E.   E. S +Q     Q    +S  E.
|-------------------------|-------------------------|
|-------------------------|-------------------------|
|-8--9-(9)----9----(9)-9--|-8--9-(9)----9----(9)-9--|
|-------------------------|-------------------------|
|
| E. S +S  E. E. S +S  E.   E. S +S  E. E. S +S  E.
|-------------------------|-------------------------|
|-------------------------|-------------------------|
|-------------------------|-------------------------|
|-------------------------|-------------------------|
|----------4-----4-(4)----|-4--------4-----4-(4)----|
|-1--1-(1)----1--------0--|-3--1-(1)----1--------0--|


  E. S +Q     Q    +S  E.   H           Q    +S  E.
|-------------------------|-------------------------|
|-------------------------|-7-----------7----(7)-7--|
|-8--9-(9)----9----(9)-9--|-------------------------|
|-------------------------|-------------------------|
|
| E. S +S  E. E. S +S  E.   E. S +S  E. E. S +Q
|-------------------------|-------------------------|
|-------------------------|-------------------------|
|-------------------------|-------------------------|
|-------------------------|-------------------------|
|----------4-----4-(4)----|-4--------4-----4-(4)----|
|-1--1-(1)----1--------0--|-3--3-(3)----3-----------|


  E. S +Q     Q    +S  E.   E. S +Q     Q    +S  E.
|-------------------------|-------------------------|
|-------------------------|-------------------------|
|-8--9-(9)----9----(9)-9--|-8--9-(9)----9----(9)-9--|
|-------------------------|-------------------------|
|
| E. S +S  E. E. S +S  E.   E. S +S  E. E. S +S  E.
|-------------------------|-------------------------|
|-------------------------|-------------------------|
|-------------------------|-------------------------|
|-------------------------|-------------------------|
|----------4-----4-(4)----|-4--------4-----4-(4)----|
|-1--1-(1)----1--------0--|-3--1-(1)----1--------0--|


  E. S +Q     Q    +S  E.   H           Q    +S  E.
|-------------------------|-------------------------|
|-------------------------|-7-----------7----(7)-7--|
|-8--9-(9)----9----(9)-9--|-------------------------|
|-------------------------|-------------------------|
|
| E. S +S  E. E. S +S  E.   E. S +S  E. E. S +Q
|-------------------------|-------------------------|
|-------------------------|-------------------------|
|-------------------------|-------------------------|
|-------------------------|-------------------------|
|----------4-----4-(4)----|-4--------4-----4-(4)----|
|-1--1-(1)----1--------0--|-3--1-(1)----3-----------|


  E. S +Q     Q    +S  E.   E. S +Q     Q    +S  E.   E. S +Q     Q    +S  E.
|-------------------------|-------------------------|-------------------------|
|-------------------------|-------------------------|-------------------------|
|-8--9-(9)----9----(9)-9--|-8--9-(9)----9----(9)-9--|-8--9-(9)----9----(9)-9--|
|-------------------------|-------------------------|-------------------------|
|
| E. S +S  E. E. S +S  E.   E. S +S  E. E. S +S  E.   E. S +S  E. E. S +S  E.
|-------------------------|-------------------------|-------------------------|
|-------------------------|-------------------------|-------------------------|
|-------------------------|-------------------------|-------------------------|
|-------------------------|-------------------------|-------------------------|
|----------4-----4-(4)----|-4--------4-----4-(4)----|----------4-----4-(4)----|
|-1--1-(1)----1--------0--|-3--1-(1)----1--------0--|-1--1-(1)----1--------0--|


  H               Q       +S  E.
|------------------------------------|
|-7---------------7-------(7)-7------|
|------------------------------------|
|------------------------------------|
|
| S S S S S S S S S S S S  S  S  S S
|------------------------------------|
|------------------------------------|
|------------------------------------|
|---0--------------------------------|
|-------3-3-1---1--------------------|
|-1---------------1-6---8--8--1----6-|


  E. S +Q   Q  +S  E.   E. S +Q     Q    +S  E.
|---------------------|--------------------------|
|---------------------|--------------------------|
|-8--9-(9)--9--(9)-9--|-8--9-(9)----9----(9)-9---|
|---------------------|--------------------------|
|
| E. S +Q   Q  +S  E.   E. S +S  E. E. S +S  E.
|---------------------|--------------------------|
|---------------------|----------1---------------|
|---------------------|--------------------------|
|-----------4--(4)----|--------------------------|
|---------------------|--------------------------|
|-1--1-(1)--1--(1)-0--|-3--1-(1)-1--1--3-(3)-0---|


  E. S +Q     Q    +S  E.   H           Q    +S  E.
|-------------------------|-------------------------|
|-------------------------|-7-----------7----(7)-7--|
|-8--9-(9)----9----(9)-9--|-------------------------|
|-------------------------|-------------------------|
|
| E. S +S  E. E. S +S  E.   E. S +S  E. E. S +S  E.
|-------------------------|-------------------------|
|----------1--------------|----------1--------------|
|-------------------------|-------------------------|
|-------------------------|-------------------------|
|-------------------------|-------------------------|
|-1--1-(1)-3--1--1-(1)-0--|-3--1-(1)-1--1--3-(3)-0--|


  E. S +Q     Q    +S  E.   E. S +Q     Q    +S  E.
|-------------------------|-------------------------|
|-------------------------|-------------------------|
|-8--9-(9)----9----(9)-9--|-8--9-(9)----9----(9)-9--|
|-------------------------|-------------------------|
|
| E. S +S  E. E. S +S  E.   E. S +S  E. E. S +S  E.
|-------------------------|-------------------------|
|----------1--------------|----------1--------------|
|-------------------------|-------------------------|
|-------------------------|-------------------------|
|-------------------------|-------------------------|
|-1--1-(1)-3--1--1-(1)-0--|-3--1-(1)-1--1--3-(3)-0--|


  E. S +Q     Q    +S  E.   H           Q    +S  E.
|-------------------------|-------------------------|
|-------------------------|-7-----------7----(7)-7--|
|-8--9-(9)----9----(9)-9--|-------------------------|
|-------------------------|-------------------------|
|
| E. S +S  E. E. S +S  E.   E. S +S  E. E. S +S  E.
|-------------------------|-------------------------|
|----------1--------------|----------1--------------|
|-------------------------|-------------------------|
|-------------------------|-------------------------|
|-------------------------|-------------------------|
|-1--1-(1)-3--1--1-(1)-0--|-3--1-(1)-1--1--3-(3)-0--|


  Q=290
  Q  Q  Q  Q    Q  Q  Q  Q
|-------------|-------------|
|-------------|-------------|
|-8--9--9--9--|-8--9--9--9--|
|-------------|-------------|
|
| Q  Q  Q  Q    Q  Q  Q  Q
|-------------|-------------|
|-------------|-------------|
|-------------|-------------|
|-------------|-------------|
|-------------|-------------|
|-1--1--1--1--|-3--1--1--1--|


                                        Q=285
  Q  Q  Q  Q    H          H            Q  Q  Q  Q    Q  Q  Q  Q
|-------------|-----------------------|-------------|-------------|
|-------------|-7----------7----------|-------------|-------------|
|-8--9--9--9--|-----------------------|-8--9--9--9--|-8--9--9--9--|
|-------------|-----------------------|-------------|-------------|
|
| Q  Q  Q  Q    S S S S Q  S S S S Q    Q  Q  Q  Q    Q  Q  Q  Q
|-------------|-----------------------|-------------|-------------|
|-------------|-----------------------|-------------|-------------|
|-------------|-----------------------|-------------|-------------|
|-------------|-----------------------|-------------|-------------|
|-------------|-----------------------|-------------|-------------|
|-1--1--1--1--|-1-1---1-3--1-1---1-3--|-1--1--1--1--|-3--1--1--1--|


                Q=260
  Q  Q  Q  Q    H          H            W          +W
|-------------|-----------------------|----------|--------------|
|-------------|-7----------7----------|----------|--------------|
|-8--9--9--9--|-----------------------|----------|--------------|
|-------------|-----------------------|-3--------|-(3)----------|
|
| Q  Q  Q  Q    S S S S Q  S S S S Q    W           H     Q  Q
|-------------|-----------------------|----------|--------------|
|-------------|-----------------------|----------|--------------|
|-------------|-----------------------|----------|--------------|
|-------------|-----------------------|----------|--------------|
|-------------|-----------------------|----------|--4-----2--4--|
|-1--1--1--1--|-1-1---1-3--1-1---1-3--|-1--------|--------------|


  +W             W                  W          +W
|--------------|------------------|----------|-------------|
|--------------|------------------|----------|-------------|
|--------------|-0----------------|----------|-------------|
|-(3)----------|------------------|-0--------|-(0)---------|
|
| +Q   Q  H      H    E. S +S  E.   W           H.      Q
|--------------|------------------|----------|-------------|
|--------------|------------------|----------|-------------|
|--------------|------------------|----------|-------------|
|--------------|-4----------------|----------|-------------|
|-(4)--4--2----|------3--1-(1)----|----------|--2-------2--|
|--------------|---------------6--|-1--------|-------------|


  +W                        +W                   W
|-------------------------|--------------------|------|
|-------------------------|--------------------|------|
|-------------------------|--------------------|------|
|-(0)---------------------|-(0)----------------|-3----|
|
| +Q   S S S S Q  S S S S    Q   S S S S Q  Q    W
|-------------------------|--------------------|------|
|------3-3---3-3----------|--------------------|------|
|-------------------------|--------------------|------|
|-----------------4-4---4-|--4-----------------|------|
|-(2)---------------------|------3-3---1-1-----|------|
|-------------------------|-----------------1--|-1----|


  +W             +W             W                W
|--------------|--------------|----------------|------|
|--------------|--------------|----------------|------|
|--------------|--------------|-0--------------|------|
|-(3)----------|-(3)----------|----------------|-0----|
|
|  H     Q  Q    +Q   Q  H      Q.   E +Q   Q    W
|--------------|--------------|----------------|------|
|--------------|--------------|----------------|------|
|--------------|--------------|----------------|------|
|--------------|--------------|-4--------------|------|
|--2-----2--2--|-(2)--2--2----|-3----1-(1)-----|------|
|--------------|--------------|-------------6--|-1----|


  +W             +W                    +W                   W
|--------------|---------------------|--------------------|-----------------|
|--------------|---------------------|--------------------|-----------------|
|--------------|---------------------|--------------------|-----------------|
|-(0)----------|-(0)-----------------|-(0)----------------|-3---------------|
|
|  Q   Q  H       Q   Q  E. S +S  E.    H     E. S +S  E.   H.      S S S S
|--------------|---------------------|--------------------|-----------------|
|--------------|--3------------------|--------------------|-----------------|
|--------------|---------------------|--------------------|-----------------|
|--4---4--4----|------4--------------|--------------------|-----------------|
|--------------|---------3--3-(3)-3--|--3-----1--1-(1)-1--|-----------------|
|--------------|---------------------|--------------------|-1-------3-3-3-3-|


  +W            +W                 W           W
|-------------|------------------|-----------|------|
|-------------|------------------|-----------|------|
|-------------|------------------|-0---------|------|
|-(3)---------|-(3)--------------|-----------|-0----|
|
|  H     H      +H.      S S S S   H    H      W
|-------------|------------------|-----------|------|
|-------------|------------------|------3----|------|
|-------------|------------------|-----------|------|
|-------------|------------------|-----------|------|
|--------2----|-(2)--------------|-----------|------|
|--3----------|----------3-3-3-3-|-3---------|-1----|


                                                      Q=250
  W                W                +W                W
|----------------|----------------|-----------------|------|
|----------------|----------------|-----------------|------|
|----------------|----------------|-----------------|------|
|-0--------------|-0--------------|-(0)-------------|-3----|
|
| Q.   E +Q   Q    Q.   E +Q   Q     Q.   E +Q   Q    W
|----------------|----------------|-----------------|------|
|------3-(3)-----|-3-----------3--|--3--------------|------|
|----------------|----------------|-----------------|------|
|-4-----------4--|------4-(4)-----|-------4-(4)-----|------|
|----------------|----------------|-----------------|------|
|----------------|----------------|--------------0--|-1----|


                    Q=240             Q=220      Q=2Q=200    Q=190
  +W                +W                W          E. S +S  E. E. S +S  E.
|-----------------|-----------------|----------|-------------------------|
|-----------------|-----------------|----------|-------------------------|
|-----------------|-----------------|-0--------|-------------------------|
|-(3)-------------|-(3)-------------|----------|-0--0-(0)-0--0--0-(0)-0--|
|
|  Q.   E +Q   Q     Q.   E +Q   Q    W          W
|-----------------|-----------------|----------|-------------------------|
|-----------------|-----------------|----------|-------------------------|
|-----------------|-----------------|----------|-------------------------|
|-----------------|-----------------|----------|-------------------------|
|--4----4-(4)--4--|--4----4-(4)--4--|----------|-------------------------|
|-----------------|-----------------|-1--------|-1-----------------------|


  Q=170     Q=150 Q=80
   E. S +S  E. E. S +S  E.    W
|--------------------------|--------*|
|--------------------------|--------*|
|--------------------------|--------*|
|--0--0-(0)-0--0--0-(0)-0--|--------*|
|
| +W                         +W
|--------------------------|--------*|
|--------------------------|--------*|
|--------------------------|--------*|
|--------------------------|--------*|
|--------------------------|--------*|
|-(1)----------------------|-(1)----*|



Duration Legend
---------------
W - whole; H - half; Q - quarter; E - 8th; S - 16th; T - 32nd; X - 64th; a - acciaccatura
+ - note tied to previous; . - note dotted; .. - note double dotted
Uncapitalized letters represent notes that are staccato (1/2 duration)
Irregular groupings are notated above the duration line
Duration letters will always appear directly above the note/fret number it represents the
duration for.  Duration letters with no fret number below them represent rests.  Multi-
bar rests are notated in the form Wxn, where n is the number of bars to rest for.  Low
melody durations appear below the staff

Tablature Legend
----------------
 h   - hammer-on
 p   - pull-off
 b   - bend
 pb  - pre-bend
 r   - bend release (if no number after the r, then release immediately)
 /\  - slide into or out of (from/to "nowhere")
 s   - legato slide
 S   - shift slide
 - natural harmonic
[n]  - artificial harmonic
n(n) - tapped harmonic
 ~   - vibrato
 tr  - trill
 T   - tap
 TP  - trem. picking
 PM  - palm muting
\n/  - tremolo bar dip; n = amount to dip
 \n  - tremolo bar down
 n/  - tremolo bar up
/n\  - tremolo bar inverted dip
 =   - hold bend; also acts as connecting device for hammers/pulls
 <> - volume swell (louder/softer)
 x   - on rhythm slash represents muted slash
 o   - on rhythm slash represents single note slash

Misc Legend
-----------
 |  - bar
||  - double bar
||o - repeat start
o|| - repeat end
*|  - double bar (ending)
 :  - bar (freetime)
 $  - Segno
 &  - Coda
Tempo markers -  = BPM(8/16=s8/s16), where s8 = swing 8ths, s16 = swing 16ths

comments
We did not receive enough feedback on this tab! Please rate:
print report bad tab
1 2 3 4 5
I want to post or [tab]
guest
You may want to rate the tab now too:
select rating
Please do not post tabs as comments. Select "correction" instead!