Oops, an error
Loading. Please wait.

Ghostship Part 2 Tab

ver2
ver2

Whole song

More versions @911Tabs.com
1,836 views 1 this week
no commentswrite comment
1 2 3 4 5
accurate
x 2
add to favorites launch autoscroll
font size
0
reset
Autoscroll
+/-
esc
set tempo
stop
Contributor
WARNING: You are trying to view
                                    content from Ultimate-Guitar.com
                                    in an unauthorized application,
                                    which is prohibited.

                                    Please use an official Ultimate
                                    Guitar Tabs application for iPhone,
                                    iPad or Android to access legitimate
                                    chords, guitar, bass, and drum tabs
                                    from Ultimate-Guitar.com database.

                                    Type "ultimate guitar tabs" in Apple
                                    App Store's or Android Market's
                                    search to find the application.
#----------------------------------PLEASE NOTE---------------------------------#
#This file is the author's own work and represents their interpretation of the #
#song. You may only use this file for private study, scholarship, or research. #
#------------------------------------------------------------------------------#

GHOSTSHIP PART II
As recorded by The Fall of Troy
(From the 2004 Album GHOSTSHIP DEMOS)


        

Music by The Fall of Troy

Gtr I (E A D G B E) - 'Tom'
Gtr II (E A D G B E) - 'Tom (overdub chords)'
Gtr III (E A D G B E) - 'Jesse'

  Q=250
 16/8
  Gtr I
  W                  E E E E E Q  Q.   E E E E E E
|------------------|--------------------------------|
|------------------|--------------------------------|
|------------------|--------------2----4-----5------|
|------------------|-----------5--2------5-7---5-7--|
|------------------|-----------5--0-----------------|
|------------------|-----------3--------------------|
|
| Gtr II
| W                  E E E E E Q  H      E E E E E
|------------------|--------------------------------|
|------------------|--------------------------------|
|------------------|--------------2-----------------|
|------------------|-----------5--2-----------------|
|------------------|-----------5--0-----------------|
|------------------|-----------3--------------------|
|
| Gtr III
| W                  E E E E E Q  H      E E E E E
|------------------|-----------3--5-----------------|
|------------------|-----------3--5-----------------|
|------------------|--------------------------------|
|------------------|--------------------------------|
|------------------|--------------------------------|
|------------------|--------------------------------|


  E  E  E  E E Q  Q.   E E E E E E   E  E  E  E E Q  Q.   E E E E E E
|----------------------------------|----------------------------------|
|----------------------------------|----------------------------------|
|-----------------2----4-----5-----|-----------------2----4-----5-----|
|-9-------10---5--2------5-7---5-7-|-9-------10---5--2------5-7---5-7-|
|---10-12------5--0----------------|---10-12------5--0----------------|
|--------------3-------------------|--------------3-------------------|
|
| E  E  E  E E Q  H      E E E E E   E  E  E  E E Q  H      E E E E E
|----------------------------------|----------------------------------|
|----------------------------------|----------------------------------|
|-----------------2----------------|-----------------2----------------|
|--------------5--2----------------|--------------5--2----------------|
|--------------5--0----------------|--------------5--0----------------|
|--------------3-------------------|--------------3-------------------|
|
| E  E  E  E E Q  H      E E E E E   E  E  E  E E Q  H      E E E E E
|--------------3--5----------------|--------------3--5----------------|
|--------------3--5----------------|--------------3--5----------------|
|----------------------------------|----------------------------------|
|----------------------------------|----------------------------------|
|----------------------------------|----------------------------------|
|----------------------------------|----------------------------------|


  E  E  E  E E Q  Q.   E E E E E E   E  E Q.     Q  Q.   E E E E E E
|----------------------------------|---------------------------------|
|----------------------------------|------8--------------------------|
|-----------------2----4-----5-----|----------------2----4-----5-----|
|-9------------5--2------5-7---5-7-|-9-----------5--2------5-7---5-7-|
|---10-12-14---5--0----------------|---10--------5--0----------------|
|--------------3-------------------|-------------3-------------------|
|
| E  E  E  E E Q  H      E E E E E   E  E E  E E Q  H      E E E E E
|----------------------------------|---------------------------------|
|----------------------------------|---------------------------------|
|-----------------2----------------|----------------2----------------|
|--------------5--2----------------|-------------5--2----------------|
|--------------5--0----------------|-------------5--0----------------|
|--------------3-------------------|-------------3-------------------|
|
| E  E  E  E E Q  H      E E E E E   E  E E  E E Q  H      E E E E E
|--------------3--5----------------|-------------3--5----------------|
|--------------3--5----------------|-------------3--5----------------|
|----------------------------------|---------------------------------|
|----------------------------------|---------------------------------|
|----------------------------------|---------------------------------|
|----------------------------------|---------------------------------|


  E  E  E  E E Q  Q.   E E E E E E   E  E  E  S  S E Q  Q.   E E E E E E
|----------------------------------|--------------------------------------|
|----------------------------------|-------------------------0-----1------|
|-----------------2----4-----5-----|---------------------------0-----0----|
|-9-------10---5--2------5-7---5-7-|-9-------12-14---5--3--------3-----3--|
|---10-12------5--0----------------|---10-12---------5--3-----------------|
|--------------3-------------------|-----------------3--1-----------------|
|
| E  E  E  E E Q  H      E E E E E   E  E  E  E    E Q  H      E E E E E
|----------------------------------|--------------------------------------|
|----------------------------------|--------------------------------------|
|-----------------2----------------|--------------------------------------|
|--------------5--2----------------|-----------------5--3-----------------|
|--------------5--0----------------|-----------------5--3-----------------|
|--------------3-------------------|-----------------3--1-----------------|
|
| E  E  E  E E Q  H      E E E E E   E  E  E  E    E Q  H      E E E E E
|--------------3--5----------------|-----------------3--1-----------------|
|--------------3--5----------------|-----------------3--1-----------------|
|----------------------------------|--------------------------------------|
|----------------------------------|--------------------------------------|
|----------------------------------|--------------------------------------|
|----------------------------------|--------------------------------------|


  E E E S S E Q  Q.   E E E E E E   S S E E E E Q  Q.   E E E E E E
|---------------------------------|---------------------------------|
|-------3-5-----------0-----1-----|-1-2-1-0---3---------------------|
|-4---------------------0-----0---|---------0------2----4-----5-----|
|---5-3-------5--3--------3-----3-|-------------5--2------5-7---5-7-|
|-------------5--3----------------|-------------5--0----------------|
|-------------3--1----------------|-------------3-------------------|
|
| E E E E   E Q  H      E E E E E   E   E E E E Q  H      E E E E E
|---------------------------------|---------------------------------|
|---------------------------------|---------------------------------|
|---------------------------------|----------------2----------------|
|-------------5--3----------------|-------------5--2----------------|
|-------------5--3----------------|-------------5--0----------------|
|-------------3--1----------------|-------------3-------------------|
|
| E E E E   E Q  H      E E E E E   E   E E E E Q  H      E E E E E
|-------------3--1----------------|-------------3--5----------------|
|-------------3--1----------------|-------------3--5----------------|
|---------------------------------|---------------------------------|
|---------------------------------|---------------------------------|
|---------------------------------|---------------------------------|
|---------------------------------|---------------------------------|


  E  E  E  E E Q  Q.   E E E E E E   E  E  E  S  S E Q  Q.   E E E E E E
|----------------------------------|--------------------------------------|
|----------------------------------|-------------------------0-----1------|
|-----------------2----4-----5-----|---------------------------0-----0----|
|-9-------10---5--2------5-7---5-7-|-9-------12-14---5--3--------3-----3--|
|---10-12------5--0----------------|---10-12---------5--3-----------------|
|--------------3-------------------|-----------------3--1-----------------|
|
| E  E  E  E E Q  H      E E E E E   E  E  E  E    E Q  H      E E E E E
|----------------------------------|--------------------------------------|
|----------------------------------|--------------------------------------|
|-----------------2----------------|--------------------------------------|
|--------------5--2----------------|-----------------5--3-----------------|
|--------------5--0----------------|-----------------5--3-----------------|
|--------------3-------------------|-----------------3--1-----------------|
|
| E  E  E  E E Q  H      E E E E E   E  E  E  E    E Q  H      E E E E E
|--------------3--5----------------|-----------------3--1-----------------|
|--------------3--5----------------|-----------------3--1-----------------|
|----------------------------------|--------------------------------------|
|----------------------------------|--------------------------------------|
|----------------------------------|--------------------------------------|
|----------------------------------|--------------------------------------|


                                   5/8           3/4
  E E E S S E Q  Q.   E E E E E E   S S E E E E   S S S S E E Q
|---------------------------------|-------------|-------------0--|
|-------3-5-----------0-----1-----|-1-2-1-0-----|-------------1--|
|-4---------------------0-----0---|---------0---|----------------|
|---5-3-------5--3--------3-----3-|-----------0-|----------------|
|-------------5--3----------------|-------------|-0-0-0-0-0-0----|
|-------------3--1----------------|-------------|----------------|
|
| E E E E   E Q  H      E E E E E   W             W
|---------------------------------|-------------|----------------|
|---------------------------------|-------------|----------------|
|---------------------------------|-------------|----------------|
|-------------5--3----------------|-------------|----------------|
|-------------5--3----------------|-------------|----------------|
|-------------3--1----------------|-------------|----------------|
|
| E E E E   E Q  H      E E E E E   W             W
|-------------3--1----------------|-------------|----------------|
|-------------3--1----------------|-------------|----------------|
|---------------------------------|-------------|----------------|
|---------------------------------|-------------|----------------|
|---------------------------------|-------------|----------------|
|---------------------------------|-------------|----------------|


  E S S +S  S E Q    S S S S E E Q    E S S +S  S E Q    S S S S E E Q
|------------------|-------------1--|---------------0--|-------------0--|
|---------------3--|-------------3--|---------------1--|-------------1--|
|---------------4--|----------------|------------------|----------------|
|------------------|----------------|------------------|----------------|
|-0---0-(0)---0----|-0-0-0-0-0-0----|-0---0-(0)---0----|-0-0-0-0-0-0----|
|------------------|----------------|------------------|----------------|


                                                Q=225
  E S S +S  S E Q    S S S S E E Q    H.        E. S +E  E Q    E. S +E  E Q
|------------------|-------------1--|-0-------|------------0--|----------------|
|---------------3--|-------------3--|-1-------|------------1--|------------3---|
|---------------4--|----------------|---------|---------------|------------4---|
|------------------|----------------|---------|---------------|----------------|
|-0---0-(0)---0----|-0-0-0-0-0-0----|---------|-0--0-(0)-0----|-0--0-(0)-0-----|
|------------------|----------------|---------|---------------|----------------|
|
| Gtr II                                        Gtr III
| W                  W                H.        E. S +E  E Q    E. S +E  E Q
|------------------|----------------|-0-------|------------0--|----------------|
|------------------|----------------|-1-------|------------1--|------------3---|
|------------------|----------------|---------|-2--2-(2)-2----|-2--2-(2)-2-4---|
|------------------|----------------|---------|---------------|----------------|
|------------------|----------------|---------|---------------|----------------|
|------------------|----------------|---------|---------------|----------------|


  E. S +E  E Q    E. S +E  E Q    E. S +E  E Q
|------------1--|------------0--|------------0--|
|------------3--|------------1--|------------1--|
|---------------|---------------|---------------|
|---------------|---------------|---------------|
|-0--0-(0)-0----|-0--0-(0)-0----|-0--0-(0)-0----|
|---------------|---------------|---------------|
|
| E. S +E  E Q    E. S +E  E Q    E. S +E  E Q
|------------1--|------------0--|------------0--|
|------------3--|------------1--|------------1--|
|-2--2-(2)-2----|-2--2-(2)-2----|-2--2-(2)-2----|
|---------------|---------------|---------------|
|---------------|---------------|---------------|
|---------------|---------------|---------------|


  E. S +E  E Q    E. S +E  E Q    E. S +E  E Q
|---------------|------------1--|------------0--|
|------------3--|------------3--|------------1--|
|------------4--|---------------|---------------|
|---------------|---------------|---------------|
|-0--0-(0)-0----|-0--0-(0)-0----|-0--0-(0)-0----|
|---------------|---------------|---------------|
|
| E. S +E  E Q    E. S +E  E Q    E. S +E  E Q
|---------------|------------1--|------------3--|
|------------3--|------------3--|------------5--|
|-2--2-(2)-2-4--|-2--2-(2)-2----|-2--2-(2)-2----|
|---------------|---------------|---------------|
|---------------|---------------|---------------|
|---------------|---------------|---------------|


  E. S +E  E  Q    E. S +E  E  Q    E. S +E  E  Q
|-------------0--|----------------|-------------1--|
|-------------1--|-------------3--|-------------3--|
|----------------|-------------4--|----------------|
|----------------|----------------|----------------|
|-0--0-(0)-0-----|-0--0-(0)-0-----|-0--0-(0)-0-----|
|----------------|----------------|----------------|
|
| E. S +E  E  Q    E. S +E  E  Q    E. S +E  E  Q
|------------12--|------------10--|------------13--|
|----------------|-------------0--|----------------|
|-2--2-(2)-2--9--|-------------7--|------------10--|
|------------10--|-7--7-(7)-7-----|-7--7-(7)-7-12--|
|----------------|----------------|----------------|
|----------------|----------------|----------------|


   E.  S  +E   E  Q     E.  S  +E   E  Q     E.  S  +E   E  Q
|-----------------0--|-----------------0--|--------------------|
|-----------------1--|-----------------1--|-----------------3--|
|--------------------|--------------------|-----------------4--|
|--------------------|--------------------|--------------------|
|--0---0--(0)--0-----|--0---0--(0)--0-----|--0---0--(0)--0-----|
|--------------------|--------------------|--------------------|
|
|  E.  S  +E   E  Q     E.  S  +E   E  Q     E.  S  +E   E  Q
|--------------------|--------------------|--------------------|
|----------------17--|----------------17--|----------------15--|
|--------------------|--------------------|--------------------|
|----------------14--|----------------14--|----------------12--|
|-12--12-(12)-12-15--|-12--12-(12)-12-15--|-12--12-(12)-12-14--|
|--------------------|--------------------|--------------------|


                                 4/4
   E.  S  +E   E  Q     H.        S S S S  E E  E E  S  S S  S
|-----------------1--|--0-------|---------------0---12---------|
|-----------------3--|--1-------|---------------1-----------12-|
|--------------------|----------|------------------------------|
|--------------------|----------|----------------------14------|
|--0---0--(0)--0-----|----------|-0-0-0-0--0-0-----------------|
|--------------------|----------|------------------------------|
|
|  E.  S  +E   E  Q     H.        Q        Q    H
|----------------13--|-12-------|--------------12--------------|
|--------------------|----------|---------10---13--------------|
|----------------10--|--9-------|--------------14--------------|
|----------------12--|-10-------|------------------------------|
|-12--12-(12)-12-----|----------|------------------------------|
|--------------------|----------|------------------------------|


    S   S S  S  S  S S  S  S  S S  S  S S S S
|--------------15-----------------------------|
|--13------------------12-13------------------|
|---------------------------------------------|
|-----------14----14-----------------17-0---0-|
|------14--------------------14---------------|
|---------------------------------15----------|
|
|  +W
|-(12)----------------------------------------|
|-(13)----------------------------------------|
|-(14)----------------------------------------|
|---------------------------------------------|
|---------------------------------------------|
|---------------------------------------------|


   E.    S  +E   E  S S E  S  S S  S
|-------------------------12---------|
|-------------------3-------------12-|
|-------------------0----------------|
|-------------------0--------14------|
|--3-----3--(3)--3-------------------|
|------------------------------------|
|
|  E   E    +E   E  H
|------------------------------------|
|------------------20----------------|
|------------------------------------|
|-10--10---(10)-10-17----------------|
|------------------------------------|
|------------------20----------------|


    S   S S  S  S  S S  S  E  E  +Q      S S  S S   E   E  E E  S  S S  S
|--------------12---------------------|------------------------15------12-|
|--13------------------12-13----------|--------------------1--------------|
|-------------------------------------|--------------------0--------------|
|-----------14----14------------------|---------------------------14------|
|------14-----------------------------|-----------------------------------|
|----------------------------10-(10)--|--1-1--1-1---1---1-----------------|
|
|  +W                                    E    E    +E   E  H
|-------------------------------------|-------------------15--------------|
|-(20)--------------------------------|-------------------13--------------|
|-------------------------------------|-----------------------------------|
|-(17)--------------------------------|-------------------15--------------|
|-------------------------------------|-------------------15--------------|
|-(20)--------------------------------|-13---13---(13)-13-----------------|


    S   S S  S  S  S S  S  S  S S  S  S  S S S
|------17--------------------------------------|
|----------------------20---------17-----------|
|--------------19------------------------------|
|--------------------------------------------0-|
|--14-------19------------19-------------------|
|-----------------19---------19------19-15-----|
|
|  +W
|-(15)-----------------------------------------|
|-(13)-----------------------------------------|
|----------------------------------------------|
|-(15)-----------------------------------------|
|-(15)-----------------------------------------|
|----------------------------------------------|


 6/4
   S S S S E E E E E E   E  E E E
|---------------------------------|
|--1-1-1-1-1-1-1---1-1---1--1-1---|
|--2-2-2-2-2-2-2---2-2---2--2-2---|
|--0-0-0-0-0-0-0---2-2---2--2-2---|
|---------------------------------|
|---------------------------------|
|
|  W                    +H
|-15-------------------(15)-------|
|-13-------------------(13)-------|
|-14-------------------(14)-------|
|---------------------------------|
|---------------------------------|
|---------------------------------|


 4/4
   S S  S S   E   E  E E  S  S S  S
|--------------------0---12---------|
|--------------------1-----------12-|
|-----------------------------------|
|---------------------------14------|
|--0-0--0-0---0---0-----------------|
|-----------------------------------|
|
|  E    E    +E   E  H
|-------------------12--------------|
|-------------------13--------------|
|-14---14---(14)-14-14--------------|
|-----------------------------------|
|-----------------------------------|
|-----------------------------------|


    S   S S  S  S  S S  S  S  S S  S  S S S S
|--------------15-----------------------------|
|--13------------------12-13------------------|
|---------------------------------------------|
|-----------14----14-----------------17-0---0-|
|------14--------------------14---------------|
|---------------------------------15----------|
|
|  +W
|-(12)----------------------------------------|
|-(13)----------------------------------------|
|-(14)----------------------------------------|
|---------------------------------------------|
|---------------------------------------------|
|---------------------------------------------|


   E.    S  +E   E  S S E  S  S S  S
|-------------------------12---------|
|-------------------3-------------12-|
|-------------------0----------------|
|-------------------0--------14------|
|--3-----3--(3)--3-------------------|
|------------------------------------|
|
|  E   E    +E   E  H
|------------------------------------|
|------------------20----------------|
|------------------------------------|
|-10--10---(10)-10-17----------------|
|------------------------------------|
|------------------20----------------|


    S   S S  S  S  S S  S  E  E  +Q      S S  S S   E   E  E E  S  S S  S
|--------------12---------------------|------------------------15------12--|
|--13------------------12-13----------|--------------------1---------------|
|-------------------------------------|--------------------0---------------|
|-----------14----14------------------|---------------------------14-------|
|------14-----------------------------|------------------------------------|
|----------------------------10-(10)--|--1-1--1-1---1---1------------------|
|
|  +W                                    E    E    +E   E  H
|-------------------------------------|-------------------15---------------|
|-(20)--------------------------------|-------------------13---------------|
|-------------------------------------|------------------------------------|
|-(17)--------------------------------|-------------------15---------------|
|-------------------------------------|-------------------15---------------|
|-(20)--------------------------------|-13---13---(13)-13------------------|


    S   S S  S  S  S S  S  S  S S  S  S  S S S
|------17--------------------------------------|
|----------------------20---------17-----------|
|--------------19------------------------------|
|--------------------------------------------0-|
|--14-------19------------19-------------------|
|-----------------19---------19------19-15-----|
|
|  +W
|-(15)-----------------------------------------|
|-(13)-----------------------------------------|
|----------------------------------------------|
|-(15)-----------------------------------------|
|-(15)-----------------------------------------|
|----------------------------------------------|


 6/4
   S S S S E E E E E E   E  E E E
|---------------------------------|
|--1-1-1-1-1-1-1---1-1---1--1-1---|
|--2-2-2-2-2-2-2---2-2---2--2-2---|
|--0-0-0-0-0-0-0---2-2---2--2-2---|
|---------------------------------|
|---------------------------------|
|
|  W                    +H
|-15-------------------(15)-------|
|-13-------------------(13)-------|
|-14-------------------(14)-------|
|---------------------------------|
|---------------------------------|
|---------------------------------|


 3/4
  S S S S E E Q    E S S +S  S E Q
|-------------0--|------------------|
|-------------1--|---------------3--|
|----------------|---------------4--|
|----------------|------------------|
|-0-0-0-0-0-0----|-0---0-(0)---0----|
|----------------|------------------|
|
| W                W
|----------------|------------------|
|----------------|------------------|
|----------------|------------------|
|----------------|------------------|
|----------------|------------------|
|----------------|------------------|


                                Q=225
  S S S S E E Q     W            E.  S  +E   E  Q
|-------------1--|------------|-----------------0---|
|-------------3--|------------|-----------------1---|
|----------------|------------|---------------------|
|----------------|------------|---------------------|
|-0-0-0-0-0-0----|------------|--0---0--(0)--0------|
|----------------|------------|---------------------|
|
| W                 H.           E.  S  +E   E  Q
|----------------|------------|---------------------|
|----------------|------------|---------------------|
|----------------|------------|---------------------|
|----------------|-14---------|----------------14---|
|----------------|-12---------|-12--12-(12)-12-15---|
|----------------|------------|---------------------|


   E.  S  +E   E  Q     E.  S  +E   E  Q     E.  S  +E   E  Q
|--------------------|-----------------1--|-----------------0--|
|-----------------3--|-----------------3--|-----------------1--|
|-----------------4--|--------------------|--------------------|
|--------------------|--------------------|--------------------|
|--0---0--(0)--0-----|--0---0--(0)--0-----|--0---0--(0)--0-----|
|--------------------|--------------------|--------------------|
|
|  E.  S  +E   E  Q     E.  S  +E   E  Q     E.  S  +E   E  Q
|--------------------|--------------------|--------------------|
|--------------------|--------------------|--------------------|
|--------------------|----------------10--|--------------------|
|----------------12--|----------------12--|----------------14--|
|-12--12-(12)-12-14--|-12--12-(12)-12-----|-12--12-(12)-12-15--|
|--------------------|--------------------|--------------------|


   E.  S  +E   E  Q     E.  S  +E   E  Q     E.  S  +E   E  Q
|-----------------0--|--------------------|-----------------1--|
|-----------------1--|-----------------3--|-----------------3--|
|--------------------|-----------------4--|--------------------|
|--------------------|--------------------|--------------------|
|--0---0--(0)--0-----|--0---0--(0)--0-----|--0---0--(0)--0-----|
|--------------------|--------------------|--------------------|
|
|  E.  S  +E   E  Q     E.  S  +E   E  Q     E.  S  +E   E  Q
|--------------------|--------------------|--------------------|
|--------------------|--------------------|--------------------|
|--------------------|--------------------|----------------10--|
|----------------14--|----------------12--|----------------12--|
|-12--12-(12)-12-15--|-12--12-(12)-12-14--|-12--12-(12)-12-----|
|--------------------|--------------------|--------------------|


   E.  S  +E   E  Q     E.  S  +E   E  Q     E.  S  +E   E  Q
|-----------------0--|-----------------0--|--------------------|
|-----------------1--|-----------------1--|-----------------3--|
|--------------------|--------------------|-----------------4--|
|--------------------|--------------------|--------------------|
|--0---0--(0)--0-----|--0---0--(0)--0-----|--0---0--(0)--0-----|
|--------------------|--------------------|--------------------|
|
|  E.  S  +E   E  Q     E.  S  +E   E  Q     E.  S  +E   E  Q
|--------------------|--------------------|--------------------|
|--------------------|----------------17--|----------------15--|
|----------------12--|--------------------|--------------------|
|----------------14--|----------------14--|----------------12--|
|-12--12-(12)-12-----|-12--12-(12)-12-15--|-12--12-(12)-12-14--|
|--------------------|--------------------|--------------------|


   E.  S  +E   E  Q     E.  S  +E   E  Q     E.  S  +E   E  Q
|-----------------1--|-----------------0--|-----------------0--|
|-----------------3--|-----------------1--|-----------------1--|
|--------------------|--------------------|--------------------|
|--------------------|--------------------|--------------------|
|--0---0--(0)--0-----|--0---0--(0)--0-----|--0---0--(0)--0-----|
|--------------------|--------------------|--------------------|
|
|  E.  S  +E   E  Q     E.  S  +E   E  Q     E.  S  +E   E  Q
|----------------13--|--------------------|--------------------|
|--------------------|----------------17--|----------------17--|
|----------------10--|--------------------|--------------------|
|----------------12--|----------------14--|----------------14--|
|-12--12-(12)-12-----|-12--12-(12)-12-15--|-12--12-(12)-12-15--|
|--------------------|--------------------|--------------------|


   E.  S  +E   E  Q     E.  S  +E   E  Q
|--------------------|-----------------1--|
|-----------------3--|-----------------3--|
|-----------------4--|--------------------|
|--------------------|--------------------|
|--0---0--(0)--0-----|--0---0--(0)--0-----|
|--------------------|--------------------|
|
| Gtr II
|  W                    W
|--------------------|--------------------|
|--------------------|--------------------|
|--------------------|--------------------|
|--------------------|--------------------|
|--------------------|--------------------|
|--------------------|--------------------|
|
| Gtr III
|  E.  S  +E   E  Q     E.  S  +E   E  Q
|--------------------|----------------13--|
|----------------15--|--------------------|
|--------------------|----------------10--|
|----------------12--|----------------12--|
|-12--12-(12)-12-14--|-12--12-(12)-12-----|
|--------------------|--------------------|


            4/4
   H.        S S S S  E E  E E  S  S S  S
|--0-------|---------------0---12----------|
|--1-------|---------------1-----------12--|
|----------|-------------------------------|
|----------|----------------------14-------|
|----------|-0-0-0-0--0-0------------------|
|----------|-------------------------------|
|
|  H.        W
|--0-------|-------------------------------|
|--1-------|-------------------------------|
|----------|-------------------------------|
|----------|-------------------------------|
|----------|-------------------------------|
|----------|-------------------------------|
|
|  H.        Q        Q    H
|-12-------|--------------12---------------|
|----------|---------10---13---------------|
|--9-------|--------------14---------------|
|-10-------|-------------------------------|
|----------|-------------------------------|
|----------|-------------------------------|


    S   S S  S  S  S S  S  S  S S  S  S S S S
|--------------15-----------------------------|
|--13------------------12-13------------------|
|---------------------------------------------|
|-----------14----14-----------------17-0---0-|
|------14--------------------14---------------|
|---------------------------------15----------|
|
| Gtr III
|  +W
|-(12)----------------------------------------|
|-(13)----------------------------------------|
|-(14)----------------------------------------|
|---------------------------------------------|
|---------------------------------------------|
|---------------------------------------------|


   E.    S  +E   E  S S E  S  S S  S
|-------------------------12---------|
|-------------------3-------------12-|
|-------------------0----------------|
|-------------------0--------14------|
|--3-----3--(3)--3-------------------|
|------------------------------------|
|
|  E   E    +E   E  H
|------------------------------------|
|------------------20----------------|
|------------------------------------|
|-10--10---(10)-10-17----------------|
|------------------------------------|
|------------------20----------------|


    S   S S  S  S  S S  S  E  E  +Q      S S  S S   E   E  E E  S  S S  S
|--------------12---------------------|------------------------15------12-|
|--13------------------12-13----------|--------------------1--------------|
|-------------------------------------|--------------------0--------------|
|-----------14----14------------------|---------------------------14------|
|------14-----------------------------|-----------------------------------|
|----------------------------10-(10)--|--1-1--1-1---1---1-----------------|
|
|  +W                                    E    E    +E   E  H
|-------------------------------------|-------------------15--------------|
|-(20)--------------------------------|-------------------13--------------|
|-------------------------------------|-----------------------------------|
|-(17)--------------------------------|-------------------15--------------|
|-------------------------------------|-------------------15--------------|
|-(20)--------------------------------|-13---13---(13)-13-----------------|


    S   S S  S  S  S S  S  S  S S  S  S  S S S
|------17--------------------------------------|
|----------------------20---------17-----------|
|--------------19------------------------------|
|--------------------------------------------0-|
|--14-------19------------19-------------------|
|-----------------19---------19------19-15-----|
|
|  +W
|-(15)-----------------------------------------|
|-(13)-----------------------------------------|
|----------------------------------------------|
|-(15)-----------------------------------------|
|-(15)-----------------------------------------|
|----------------------------------------------|


 6/4
   S S S S E E E E E E   E  E E E
|---------------------------------|
|--1-1-1-1-1-1-1---1-1---1--1-1---|
|--2-2-2-2-2-2-2---2-2---2--2-2---|
|--0-0-0-0-0-0-0---2-2---2--2-2---|
|---------------------------------|
|---------------------------------|
|
|  W                    +H
|-15-------------------(15)-------|
|-13-------------------(13)-------|
|-14-------------------(14)-------|
|---------------------------------|
|---------------------------------|
|---------------------------------|


 4/4
   S S  S S   E   E  E E  S  S S  S
|--------------------0---12---------|
|--------------------1-----------12-|
|-----------------------------------|
|---------------------------14------|
|--0-0--0-0---0---0-----------------|
|-----------------------------------|
|
|  E    E    +E   E  H
|-------------------12--------------|
|-------------------13--------------|
|-14---14---(14)-14-14--------------|
|-----------------------------------|
|-----------------------------------|
|-----------------------------------|


    S   S S  S  S  S S  S  S  S S  S  S S S S
|--------------15-----------------------------|
|--13------------------12-13------------------|
|---------------------------------------------|
|-----------14----14-----------------17-0---0-|
|------14--------------------14---------------|
|---------------------------------15----------|
|
|  +W
|-(12)----------------------------------------|
|-(13)----------------------------------------|
|-(14)----------------------------------------|
|---------------------------------------------|
|---------------------------------------------|
|---------------------------------------------|


   E.    S  +E   E  S S E  S  S S  S
|-------------------------12---------|
|-------------------3-------------12-|
|-------------------0----------------|
|-------------------0--------14------|
|--3-----3--(3)--3-------------------|
|------------------------------------|
|
|  E   E    +E   E  H
|------------------------------------|
|------------------20----------------|
|------------------------------------|
|-10--10---(10)-10-17----------------|
|------------------------------------|
|------------------20----------------|


    S   S S  S  S  S S  S  E  E  +Q      S S  S S   E   E  E E  S  S S  S
|--------------12---------------------|------------------------15------12--|
|--13------------------12-13----------|--------------------1---------------|
|-------------------------------------|--------------------0---------------|
|-----------14----14------------------|---------------------------14-------|
|------14-----------------------------|------------------------------------|
|----------------------------10-(10)--|--1-1--1-1---1---1------------------|
|
|  +W                                    E    E    +E   E  H
|-------------------------------------|-------------------15---------------|
|-(20)--------------------------------|-------------------13---------------|
|-------------------------------------|------------------------------------|
|-(17)--------------------------------|-------------------15---------------|
|-------------------------------------|-------------------15---------------|
|-(20)--------------------------------|-13---13---(13)-13------------------|


    S   S S  S  S  S S  S  S  S S  S  S  S S S
|------17--------------------------------------|
|----------------------20---------17-----------|
|--------------19------------------------------|
|--------------------------------------------0-|
|--14-------19------------19-------------------|
|-----------------19---------19------19-15-----|
|
|  +W
|-(15)-----------------------------------------|
|-(13)-----------------------------------------|
|----------------------------------------------|
|-(15)-----------------------------------------|
|-(15)-----------------------------------------|
|----------------------------------------------|


 6/4
   S S S S E E E E E E   E  E E E
|---------------------------------|
|--1-1-1-1-1-1-1---1-1---1--1-1---|
|--2-2-2-2-2-2-2---2-2---2--2-2---|
|--0-0-0-0-0-0-0---2-2---2--2-2---|
|---------------------------------|
|---------------------------------|
|
|  W                    +H
|-15-------------------(15)-------|
|-13-------------------(13)-------|
|-14-------------------(14)-------|
|---------------------------------|
|---------------------------------|
|---------------------------------|


 3/4
  S S S S E E Q    E S S +S  S E Q
|-------------0--|------------------|
|-------------1--|---------------3--|
|----------------|---------------4--|
|----------------|------------------|
|-0-0-0-0-0-0----|-0---0-(0)---0----|
|----------------|------------------|
|
| W                W
|----------------|------------------|
|----------------|------------------|
|----------------|------------------|
|----------------|------------------|
|----------------|------------------|
|----------------|------------------|


                               Q=225
  S S S S E E Q    H.           E.  S  +E   E  Q
|-------------1--|-0---------|-----------------0---|
|-------------3--|-1---------|-----------------1---|
|----------------|-----------|---------------------|
|----------------|-----------|---------------------|
|-0-0-0-0-0-0----|-----------|--0---0--(0)--0------|
|----------------|-----------|---------------------|
|
| W                W            E.  S  +E   E  Q
|----------------|-----------|---------------------|
|----------------|-----------|---------------------|
|----------------|-----------|---------------------|
|----------------|-----------|----------------14---|
|----------------|-----------|-12--12-(12)-12-15---|
|----------------|-----------|---------------------|


   E.  S  +E   E  Q     E.  S  +E   E  Q     E.  S  +E   E  Q
|--------------------|-----------------1--|-----------------0--|
|-----------------3--|-----------------3--|-----------------1--|
|-----------------4--|--------------------|--------------------|
|--------------------|--------------------|--------------------|
|--0---0--(0)--0-----|--0---0--(0)--0-----|--0---0--(0)--0-----|
|--------------------|--------------------|--------------------|
|
|  E.  S  +E   E  Q     E.  S  +E   E  Q     E.  S  +E   E  Q
|--------------------|--------------------|--------------------|
|--------------------|--------------------|--------------------|
|--------------------|----------------10--|--------------------|
|----------------12--|----------------12--|----------------14--|
|-12--12-(12)-12-14--|-12--12-(12)-12-----|-12--12-(12)-12-15--|
|--------------------|--------------------|--------------------|


   E.  S  +E   E  Q     E.  S  +E   E  Q     E.  S  +E   E  Q
|-----------------0--|--------------------|-----------------1--|
|-----------------1--|-----------------3--|-----------------3--|
|--------------------|-----------------4--|--------------------|
|--------------------|--------------------|--------------------|
|--0---0--(0)--0-----|--0---0--(0)--0-----|--0---0--(0)--0-----|
|--------------------|--------------------|--------------------|
|
|  E.  S  +E   E  Q     E.  S  +E   E  Q     E.  S  +E   E  Q
|--------------------|--------------------|--------------------|
|--------------------|--------------------|--------------------|
|--------------------|--------------------|----------------10--|
|----------------14--|----------------12--|----------------12--|
|-12--12-(12)-12-15--|-12--12-(12)-12-14--|-12--12-(12)-12-----|
|--------------------|--------------------|--------------------|


   E.  S  +E   E  Q     E.  S  +E   E  Q     E.  S  +E   E  Q
|-----------------0--|-----------------0--|--------------------|
|-----------------1--|-----------------1--|-----------------3--|
|--------------------|--------------------|-----------------4--|
|--------------------|--------------------|--------------------|
|--0---0--(0)--0-----|--0---0--(0)--0-----|--0---0--(0)--0-----|
|--------------------|--------------------|--------------------|
|
|  E.  S  +E   E  Q     E.  S  +E   E  Q     E.  S  +E   E  Q
|--------------------|--------------------|--------------------|
|--------------------|----------------17--|----------------15--|
|----------------12--|--------------------|--------------------|
|----------------14--|----------------14--|----------------12--|
|-12--12-(12)-12-----|-12--12-(12)-12-15--|-12--12-(12)-12-14--|
|--------------------|--------------------|--------------------|


   E.  S  +E   E  Q     E.  S  +E   E  Q     E.  S  +E   E  Q
|-----------------1--|-----------------0--|-----------------0--|
|-----------------3--|-----------------1--|-----------------1--|
|--------------------|--------------------|--------------------|
|--------------------|--------------------|--------------------|
|--0---0--(0)--0-----|--0---0--(0)--0-----|--0---0--(0)--0-----|
|--------------------|--------------------|--------------------|
|
|  E.  S  +E   E  Q     E.  S  +E   E  Q     E.  S  +E   E  Q
|----------------13--|--------------------|--------------------|
|--------------------|----------------17--|----------------17--|
|----------------10--|--------------------|--------------------|
|----------------12--|----------------14--|----------------14--|
|-12--12-(12)-12-----|-12--12-(12)-12-15--|-12--12-(12)-12-15--|
|--------------------|--------------------|--------------------|


   E.  S  +E   E  Q     E.  S  +E   E  Q     H.
|--------------------|-----------------1--|--0-------|
|-----------------3--|-----------------3--|--1-------|
|-----------------4--|--------------------|----------|
|--------------------|--------------------|----------|
|--0---0--(0)--0-----|--0---0--(0)--0-----|----------|
|--------------------|--------------------|----------|
|
|  E.  S  +E   E  Q     E.  S  +E   E  Q     H.
|--------------------|----------------13--|-12-------|
|----------------15--|--------------------|----------|
|--------------------|----------------10--|--9-------|
|----------------12--|----------------12--|-10-------|
|-12--12-(12)-12-14--|-12--12-(12)-12-----|----------|
|--------------------|--------------------|----------|


  Q  E E +E   E    Q   E E +E  E    Q   E  E  +E   E
|---------------|--5-------------|-------------------|
|------2-(2)----|----------------|---------2--(2)----|
|----2--------2-|--------2-(2)---|------2----------2-|
|-4-------------|------4-------4-|-------------------|
|---------------|----------------|--4----------------|
|---------------|----------------|-------------------|
|
| Q  E E +E   E    Q   Q    Q       Q   E  E  +E   E
|----5-9-(9)----|-12-------------|-------------------|
|-7----------10-|----------------|--------14-(14)----|
|---------------|----------------|-----14---------14-|
|---------------|-----14---16----|-------------------|
|---------------|----------------|-16----------------|
|---------------|----------------|-------------------|


   Q   E E +E  E    Q   E  E  +E   E    Q   E E +E  E
|--5-------------|-------------------|--1-------------|
|----------------|---------2--(2)----|----------------|
|--------2-(2)---|------1----------1-|--------1-(1)---|
|------4-------4-|--3----------------|------3-------3-|
|----------------|-------------------|----------------|
|----------------|-------------------|----------------|
|
|  Q   Q    Q       Q   E  E  +E   E    Q   Q    Q
|-12-------------|-------------------|----------------|
|-----14---------|-------------------|-14--12---------|
|----------14----|--------13-(13)----|----------13----|
|----------------|-15--15---------15-|----------------|
|----------------|-------------------|----------------|
|----------------|-------------------|----------------|


   Q   E  E  +E   E    Q   E E +E  E    Q   E  E  +E   E
|-------------------|--1-------------|-------------------|
|---------2--(2)----|----------------|---------2--(2)----|
|------1----------1-|--------1-(1)---|------2----------2-|
|--3----------------|------3-------3-|--2----------------|
|-------------------|----------------|-------------------|
|-------------------|----------------|-------------------|
|
|  Q   E  E  +E   E    Q   Q    Q       Q   E  E  +E   E
|-------------------|----------------|-------------------|
|-------------------|-14--12---------|--------14-(14)----|
|--------13-(13)----|-13-------13----|-----14---------14-|
|-15--15---------15-|-15-------------|-14----------------|
|-------------------|----------------|-------------------|
|-------------------|----------------|-------------------|


   Q   E  E  +E   E    Q   E  E  +E   E    Q   E  E  +E   E
|--5----------------|-------------------|--5----------------|
|-------------------|-------------------|-------------------|
|-------------------|---------6--(6)----|---------2--(2)----|
|---------7--(7)----|------7----------7-|------4----------4-|
|------7----------7-|--7----------------|-------------------|
|-------------------|-------------------|-------------------|
|
|  Q   E  E  +E   E    Q   E  E  +E   E    Q   E  E  +E   E
|-17----------------|-------------------|-17----------------|
|-------------------|-------------------|-------------------|
|-------------------|--------18-(18)----|-------------------|
|--------19-(19)----|-----19---------19-|--------19-(19)----|
|-----19---------19-|-19----------------|-----19---------19-|
|-------------------|-------------------|-------------------|


   Q   E  E  +E   E    Q   E  E  +E   E    Q   E  E  +E   E
|-------------------|--2----------------|-------------------|
|---------2--(2)----|---------2--(2)----|---------2--(2)----|
|------4----------4-|------4----------4-|------4----------4-|
|-------------------|-------------------|-------------------|
|--6----------------|-------------------|--6----------------|
|-------------------|-------------------|-------------------|
|
|  Q   E  E  +E   E    Q   E  E  +E   E    Q   E  E  +E   E
|-------------------|-14----------------|-------------------|
|--------14-(14)-12-|-----12-14-(14)-12-|-----12-14-(14)-12-|
|-----16------------|-------------------|-------------------|
|-------------------|-------------------|-13----------------|
|-18----------------|-------------------|-------------------|
|-------------------|-------------------|-------------------|


                      Q=285
                     4/4
   Q   E  E  +E   E    E.  S  +S   E.  E.  S  +S   E.
|--2----------------|---------------------------------|
|---------2--(2)----|--5---5--(5)--5---5---5--(5)--5--|
|------4----------4-|--2---2--(2)--2---2---2--(2)--2--|
|-------------------|--4---4--(4)--4---4---4--(4)--4--|
|-------------------|--5---5--(5)--5---5---5--(5)--5--|
|-------------------|---------------------------------|
|
|  Q   E  E  +E   E    E.  S  +S   E.  E.  S  +S   E.
|-14----------------|---------------------------------|
|-----12-14-(14)-12-|-14--------------14--------------|
|-------------------|-----14-(14)---------14-(14)-----|
|-------------------|-------------16--------------16--|
|-------------------|---------------------------------|
|-------------------|---------------------------------|


   E.  S  +S   E.  E.  S  +S   E.    E.  S  +S   E.  E.  S  +S   E.
|---------------------------------|----------------------------------|
|--5---5--(5)--5---5---5--(5)--5--|--5---5--(5)--5---5---5--(5)--5---|
|--2---2--(2)--2---2---2--(2)--2--|--2---2--(2)--2---2---2--(2)--2---|
|--4---4--(4)--4---4---4--(4)--4--|--4---4--(4)--4---4---4--(4)--4---|
|--5---5--(5)--5---5---5--(5)--5--|--5---5--(5)--5---5---5--(5)--5---|
|---------------------------------|----------------------------------|
|
|  E.  S  +S   E.  E.  S  +S   E.    E.  S  +S   E.  E.  S  +S   E.
|---------------------------------|----------------------------------|
|-14--------------14--------------|-14--------------14---------------|
|-----14-(14)---------14-(14)-----|-----14-(14)---------14-(14)------|
|-------------16--------------16--|-------------16--------------16---|
|---------------------------------|----------------------------------|
|---------------------------------|----------------------------------|


   E.  S  +S   E.  E.  S  +S   E.    E.  S  +S   E.  E.  S  +S   E.
|---------------------------------|---------------------------------|
|--5---5--(5)--5---5---5--(5)--5--|---------------------------------|
|--2---2--(2)--2---2---2--(2)--2--|--4---4--(4)--4---4---4--(4)--4--|
|--4---4--(4)--4---4---4--(4)--4--|--6---6--(6)--6---6---6--(6)--6--|
|--5---5--(5)--5---5---5--(5)--5--|--4---4--(4)--4---4---4--(4)--4--|
|---------------------------------|---------------------------------|
|
|  E.  S  +S   E.  E.  S  +S   E.    E.  S  +S   E.  E.  S  +S   E.
|---------------------------------|---------------------------------|
|-14--------------14--------------|---------------------------------|
|-----14-(14)---------14-(14)-----|-16------------------------------|
|-------------16--------------16--|-----18-(18)-----21--------------|
|---------------------------------|-------------20------23-(23)-20--|
|---------------------------------|---------------------------------|


   E.  S  +S   E.  E.  S  +S   E.    E.  S  +S   E.  E.  S  +S   E.
|---------------------------------|---------------------------------|
|---------------------------------|---------------------------------|
|--4---4--(4)--4---4---4--(4)--4--|--4---4--(4)--4---4---4--(4)--4--|
|--6---6--(6)--6---6---6--(6)--6--|--6---6--(6)--6---6---6--(6)--6--|
|--4---4--(4)--4---4---4--(4)--4--|--4---4--(4)--4---4---4--(4)--4--|
|---------------------------------|---------------------------------|
|
|  E.  S  +S   E.  E.  S  +S   E.    E.  S  +S   E.  E.  S  +S   E.
|---------------------------------|---------------------------------|
|---------------------------------|---------------------------------|
|---------------------------------|---------------------------------|
|-21--------------21--------------|-21--------------21--------------|
|-----23-(23)-20------23-(23)-20--|-----23-(23)-20------23-(23)-20--|
|---------------------------------|---------------------------------|


                                          Q=305
   E.  S  +S   S  E  S  E  S   S   S  E    E.  S  +S   E.  E.  S  +S   E.
|---------------------------------------|---------------------------------|
|---------------------------------------|---------------------------------|
|--4---4--(4)--4-----4-----4-------4----|--6---6--(6)--6---6---6--(6)--6--|
|--6---6--(6)--6-----6-----6-------6----|--4---4--(4)--4---4---4--(4)--4--|
|--4---4--(4)--4-----4-----4-------4----|--4---4--(4)--4---4---4--(4)--4--|
|---------------------------------------|---------------------------------|
|
|  E.  S  +S   E.    E.    S  +S   E.      E.  S  +S   E.  E.  S  +S   E.
|---------------------------------------|---------------------------------|
|---------------------------------------|---------------------------------|
|---------------------------------------|-18------------------------------|
|-21----------------21------------------|-----19-(19)-----23--------------|
|-----23-(23)-20----------23-(23)-20----|-------------21------24-(24)-21--|
|---------------------------------------|---------------------------------|


  Q=310                             Q=315
   E.  S  +S   E.  E.  S  +S   E.    E.  S  +S   E.  E.  S  +S   E.
|---------------------------------|----------------------------------|
|---------------------------------|----------------------------------|
|--6---6--(6)--6---6---6--(6)--6--|--6---6--(6)--6---6---6--(6)--6---|
|--4---4--(4)--4---4---4--(4)--4--|--4---4--(4)--4---4---4--(4)--4---|
|--4---4--(4)--4---4---4--(4)--4--|--4---4--(4)--4---4---4--(4)--4---|
|---------------------------------|----------------------------------|
|
|  E.  S  +S   E.  E.  S  +S   E.    E.  S  +S   E.  E.  S  +S   E.
|---------------------------------|----------------------------------|
|---------------------------------|----------------------------------|
|---------------------------------|----------------------------------|
|-23--------------23--------------|-23--------------23---------------|
|-----24-(24)-21------24-(24)-21--|-----24-(24)-21------24-(24)-21---|
|---------------------------------|----------------------------------|


   E.      S  +S   E.      E.        S  +S   E.
|-----------------------------------------------------|
|-----------------------------------------------------|
|--6-------6--(6)--6-------6---------6--(6)--6--------|
|--4-------4--(4)--4-------4---------4--(4)--4--------|
|--4-------4--(4)--4-------4---------4--(4)--4--------|
|-----------------------------------------------------|
|
| Gtr II
|  S  S S  S   S   S  S S  S   S  S  S   S   S   S  S
|-----------------------------------------------------|
|-----------------------------------------------------|
|-----------------------------------------------------|
|-----------------------------------------------------|
|--1--2-3--4---5---6--7-8--9--10-11-12--13--14--15-16-|
|--1--2-3--4---5---6--7-8--9--10-11-12--13--14--15-16-|
|
| Gtr III
|  E.      S  +S   E.      E.        S  +S   E.
|-----------------------------------------------------|
|-----------------------------------------------------|
|-----------------------------------------------------|
|-23----------------------23--------------------------|
|---------24-(24)-21----------------24-(24)-21--------|
|-----------------------------------------------------|


   Q            +S   E.        +E    S  S  +Q
|-21-----------(21)-21--------(21)-----21-(21)-----------|
|-21-----------(21)-21--------(21)-----21-(21)-----------|
|-23-----------(23)-23--------(23)-----23-(23)-----------|
|--------------------------------------------------------|
|--------------------------------------------------------|
|--------------------------------------------------------|
|
|  S   S  S  S   S   S   S  S   S  S S  S   S   S   S  S
|----------------------------------6-7--8---9--10--11-12-|
|----------------------------------6-7--8---9--10--11-12-|
|--------------------------------------------------------|
|--------------------------------------------------------|
|-16--17-18-19--20--21--22-23--24------------------------|
|-16--17-18-19--20--21--22-23--24------------------------|
|
|  E.        S  +S   E.         E.      S  +S   E.
|--------------------------------------------------------|
|--------------------------------------------------------|
|--------------------------------------------------------|
|-23----------------23-----------------23-(23)-----------|
|-----------24-(24)------------24--------------24--------|
|--------------------------------------------------------|


   Q      +S   E.  +E  S  S  +Q         Q      +S   E.  +E  S  S  +Q
|-21-----(21)-21--(21)---21-(21)-----|-21-----(21)-21--(21)---21-(21)-----|
|-21-----(21)-21--(21)---21-(21)-----|-21-----(21)-21--(21)---21-(21)-----|
|-23-----(23)-23--(23)---23-(23)-----|-23-----(23)-23--(23)---23-(23)-----|
|------------------------------------|------------------------------------|
|------------------------------------|------------------------------------|
|------------------------------------|------------------------------------|
|
| Gtr III
|  E.  S  +S   E.   E.    S  +S   E.    E.  S  +S   E.   E.    S  +S   E.
|------------------------------------|------------------------------------|
|------------------------------------|------------------------------------|
|------------------------------------|------------------------------------|
|-23----------23---------23-(23)-----|-23----------23---------23-(23)-----|
|-----24-(24)------24------------24--|-----24-(24)------24------------24--|
|------------------------------------|------------------------------------|


   Q      +S  S E H      Q  +S  E. +E  S S +S  E.
|-21-----(21)----------|--------------------------|
|-21-----(21)----------|-2--(2)-2--(2)---2-(2)-2--|
|-23-----(23)----------|-2--(2)-2--(2)---2-(2)-2--|
|----------------------|-4--(4)-4--(4)---4-(4)-4--|
|----------------------|--------------------------|
|----------------------|--------------------------|
|
|  E.  S  +E    E H      Q  +S  E. +E  S S +S  E.
|----------------------|-5--(5)-2--(2)---2-(2)-2--|
|----------------------|-2--(2)-2--(2)---2-(2)-2--|
|----------------------|-2--(2)-2--(2)---2-(2)-2--|
|-23-------------------|-4--(4)-4--(4)---4-(4)-4--|
|-----24-(24)----------|--------------------------|
|----------------------|--------------------------|


  E. S +Q   E. S +S  E.   Q  +S  E. +E  S S +S  E.
|-----------------------|--------------------------|
|-2--2-(2)--2--2-(2)-2--|-2--(2)-2--(2)---2-(2)-2--|
|-2--2-(2)--2--2-(2)-2--|-2--(2)-2--(2)---2-(2)-2--|
|-4--4-(4)--4--4-(4)-4--|-4--(4)-4--(4)---4-(4)-4--|
|-----------------------|--------------------------|
|-----------------------|--------------------------|
|
| E. S +Q   E. S +S  E.   Q  +S  E. +E  S S +S  E.
|-5--2-(2)--2--2-(2)-2--|-5--(5)-2--(2)---2-(2)-2--|
|-2--2-(2)--2--2-(2)-2--|-2--(2)-2--(2)---2-(2)-2--|
|-2--2-(2)--2--2-(2)-2--|-2--(2)-2--(2)---2-(2)-2--|
|-4--4-(4)--4--4-(4)-4--|-4--(4)-4--(4)---4-(4)-4--|
|-----------------------|--------------------------|
|-----------------------|--------------------------|


  E. S +Q   E. S +S  E.   Q  +S  E. +E  S S +S  E.
|-----------------------|--------------------------|
|-2--2-(2)--2--2-(2)-2--|-2--(2)-2--(2)---2-(2)-2--|
|-2--2-(2)--2--2-(2)-2--|-2--(2)-2--(2)---2-(2)-2--|
|-4--4-(4)--4--4-(4)-4--|-4--(4)-4--(4)---4-(4)-4--|
|-----------------------|--------------------------|
|-----------------------|--------------------------|
|
| E. S +Q   E. S +S  E.   Q  +S  E. +E  E    Q
|-5--2-(2)--2--2-(2)-2--|-1--(1)-1--(1)------------|
|-2--2-(2)--2--2-(2)-2--|-2--(2)-2--(2)------------|
|-2--2-(2)--2--2-(2)-2--|-2--(2)-2--(2)------------|
|-4--4-(4)--4--4-(4)-4--|-3--(3)-3--(3)------------|
|-----------------------|--------------------------|
|-----------------------|--------------------------|


  E. S +Q      E.   S +S  E.   E. S +S  E.  E.   S +S   E.
|----------------------------|-5--------2---5----------14--|
|-2--2-(2)-----2----2-(2)-2--|-----------------------------|
|-2--2-(2)-----2----2-(2)-2--|----4-(4)----------4-(4)-----|
|-4--4-(4)-----4----4-(4)-4--|-----------------------------|
|----------------------------|-----------------------------|
|----------------------------|-----------------------------|
|
| Q    +S  E. +E  E    Q       Q    +S  E. +E  E    Q
|-1----(1)-1--(1)------------|-1----(1)-1--(1)-------------|
|-2----(2)-2--(2)------------|-2----(2)-2--(2)-------------|
|-2----(2)-2--(2)------------|-2----(2)-2--(2)-------------|
|-3----(3)-3--(3)------------|-3----(3)-3--(3)-------------|
|----------------------------|-----------------------------|
|----------------------------|-----------------------------|


   +E  S  S  +S   E.  E.    S  +S   E.    Q   +S   E.  +E  S  S  +S   E.
|-(14)---------------------------------|----------------------------------|
|----------------12--------12-(12)-----|----------------------------------|
|--------------------------------------|----------------------------------|
|--------14-(14)-----14------------14--|-11--(11)-11--(11)---11-(11)-11---|
|--------------------------------------|-12--(12)-12--(12)---12-(12)-12---|
|--------------------------------------|-14--(14)-14--(14)---14-(14)-14---|
|
|   Q        +S   E. +E  E      Q         Q   +S   E.  +E  S  S  +S   E.
|---1--------(1)--1--(1)---------------|----------------------------------|
|---2--------(2)--2--(2)---------------|--2---(2)--2---(2)----2--(2)--2---|
|---2--------(2)--2--(2)---------------|--2---(2)--2---(2)----2--(2)--2---|
|---3--------(3)--3--(3)---------------|--0---(0)--0---(0)----0--(0)--0---|
|--------------------------------------|----------------------------------|
|--------------------------------------|----------------------------------|


   E.  S  +Q    E.  S  +S   E.    Q     +S   E.  +E  S  S  +S   E.
|------------------------------|-----------------------------------|
|------------------------------|-----------------------------------|
|------------------------------|-----------------------------------|
|-11--11-(11)--11--11-(11)-11--|-11----(11)-11--(11)---11-(11)-11--|
|-12--12-(12)--12--12-(12)-12--|-12----(12)-12--(12)---12-(12)-12--|
|-14--14-(14)--14--14-(14)-14--|-14----(14)-14--(14)---14-(14)-14--|
|
|  E.  S  +Q    Q       S   E.    E. S  +Q        Q         S   E.
|------------------------------|-----------------------------------|
|--2---2--(2)---------------2--|--2--2--(2)---------------------2--|
|--2---2--(2)---------------2--|--2--2--(2)---------------------2--|
|--0---0--(0)---------------0--|--0--0--(0)---------------------0--|
|------------------------------|-----------------------------------|
|------------------------------|-----------------------------------|


   E.  S  +Q    E.  S  +S   E.    Q   +S   E.  +E  E Q
|------------------------------|-------------------------|
|------------------------------|-------------------------|
|------------------------------|-------------------------|
|-11--11-(11)--11--11-(11)-11--|-15--(15)-15--(15)-------|
|-12--12-(12)--12--12-(12)-12--|-14--(14)-14--(14)-------|
|-14--14-(14)--14--14-(14)-14--|-13--(13)-13--(13)-------|
|
|  E.  S  +Q    Q       S   E.    Q   +S   E.  +E  E Q
|------------------------------|-------------------------|
|--2---2--(2)---------------2--|--6---(6)--6---(6)-------|
|--2---2--(2)---------------2--|--6---(6)--6---(6)-------|
|--0---0--(0)---------------0--|--3---(3)--3---(3)-------|
|------------------------------|-------------------------|
|------------------------------|-------------------------|


   Q   +S   E.  +E  E Q     Q   +S   E.  +E  E Q
|------------------------|------------------------|
|------------------------|------------------------|
|------------------------|------------------------|
|-15--(15)-15--(15)------|-15--(15)-15--(15)------|
|-14--(14)-14--(14)------|-14--(14)-14--(14)------|
|-13--(13)-13--(13)------|-13--(13)-13--(13)------|
|
|  Q   +S   E.  +E  E Q     Q   +S   E.  +E  E Q
|------------------------|------------------------|
|--6---(6)--6---(6)------|--6---(6)--6---(6)------|
|--6---(6)--6---(6)------|--6---(6)--6---(6)------|
|--3---(3)--3---(3)------|--3---(3)--3---(3)------|
|------------------------|------------------------|
|------------------------|------------------------|


   Q   +S   E.  +E  E Q     Q   +S   E.  +E  S  S  +S   E.
|------------------------|----------------------------------|
|------------------------|----------------------------------|
|------------------------|----------------------------------|
|-15--(15)-15--(15)------|-11--(11)-11--(11)---11-(11)-11---|
|-14--(14)-14--(14)------|-12--(12)-12--(12)---12-(12)-12---|
|-13--(13)-13--(13)------|-14--(14)-14--(14)---14-(14)-14---|
|
|  Q   +S   E.  +E  E Q     Q   +S   E.  +E  S  S  +S   E.
|------------------------|--5---(5)--2---(2)----2--(2)--2---|
|--6---(6)--6---(6)------|--2---(2)--2---(2)----2--(2)--2---|
|--6---(6)--6---(6)------|--2---(2)--2---(2)----2--(2)--2---|
|--3---(3)--3---(3)------|--4---(4)--4---(4)----4--(4)--4---|
|------------------------|----------------------------------|
|------------------------|----------------------------------|


   E.  S  +Q    E.  S  +S   E.    Q   +S   E.  +E  S  S  +S   E.
|------------------------------|---------------------------------|
|------------------------------|---------------------------------|
|------------------------------|---------------------------------|
|-11--11-(11)--11--11-(11)-11--|-11--(11)-11--(11)---11-(11)-11--|
|-12--12-(12)--12--12-(12)-12--|-12--(12)-12--(12)---12-(12)-12--|
|-14--14-(14)--14--14-(14)-14--|-14--(14)-14--(14)---14-(14)-14--|
|
|  E.  S  +Q    E.  S  +S   E.    Q   +S   E.  +E  S  S  +S   E.
|--5---2--(2)---2---2--(2)--2--|--5---(5)--2---(2)----2--(2)--2--|
|--2---2--(2)---2---2--(2)--2--|--2---(2)--2---(2)----2--(2)--2--|
|--2---2--(2)---2---2--(2)--2--|--2---(2)--2---(2)----2--(2)--2--|
|--4---4--(4)---4---4--(4)--4--|--4---(4)--4---(4)----4--(4)--4--|
|------------------------------|---------------------------------|
|------------------------------|---------------------------------|


   E.  S  +Q    E.  S  +S   E.    Q   +S   E.  +E  S  S  +S   E.
|------------------------------|---------------------------------|
|------------------------------|---------------------------------|
|------------------------------|---------------------------------|
|-11--11-(11)--11--11-(11)-11--|-11--(11)-11--(11)---11-(11)-11--|
|-12--12-(12)--12--12-(12)-12--|-12--(12)-12--(12)---12-(12)-12--|
|-14--14-(14)--14--14-(14)-14--|-14--(14)-14--(14)---14-(14)-14--|
|
|  E.  S  +Q    E.  S  +S   E.    Q   +S   E.  +E  E      Q
|--5---2--(2)---2---2--(2)--2--|--1---(1)--1---(1)---------------|
|--2---2--(2)---2---2--(2)--2--|--2---(2)--2---(2)---------------|
|--2---2--(2)---2---2--(2)--2--|--2---(2)--2---(2)---------------|
|--4---4--(4)---4---4--(4)--4--|--3---(3)--3---(3)---------------|
|------------------------------|---------------------------------|
|------------------------------|---------------------------------|


   E.  S  +Q      E.    S  +S   E.    E. S +S  E.  E.   S +S   E.
|----------------------------------|---------------5----------14--|
|----------------------------------|-10--------7------------------|
|----------------------------------|--------------------4-(4)-----|
|-11--11-(11)----11----11-(11)-11--|-----9-(9)--------------------|
|-12--12-(12)----12----12-(12)-12--|------------------------------|
|-14--14-(14)----14----14-(14)-14--|------------------------------|
|
|  Q      +S  E. +E  E      Q         Q    +S  E. +E  E    Q
|--1------(1)-1--(1)---------------|--1----(1)-1--(1)-------------|
|--2------(2)-2--(2)---------------|--2----(2)-2--(2)-------------|
|--2------(2)-2--(2)---------------|--2----(2)-2--(2)-------------|
|--3------(3)-3--(3)---------------|--3----(3)-3--(3)-------------|
|----------------------------------|------------------------------|
|----------------------------------|------------------------------|


   +E  S  S  +S   E.  E.    S  +S   E.    Q   +S   E.  +E  S  S  +S   E.
|-(14)---------------------------------|----------------------------------|
|----------------12--------12-(12)-----|----------------------------------|
|--------------------------------------|----------------------------------|
|--------14-(14)-----14------------14--|-11--(11)-11--(11)---11-(11)-11---|
|--------------------------------------|-12--(12)-12--(12)---12-(12)-12---|
|--------------------------------------|-14--(14)-14--(14)---14-(14)-14---|
|
|   Q        +S   E. +E  E      Q         Q   +S   E.  +E  S  S  +S   E.
|---1--------(1)--1--(1)---------------|----------------------------------|
|---2--------(2)--2--(2)---------------|--2---(2)--2---(2)----2--(2)--2---|
|---2--------(2)--2--(2)---------------|--2---(2)--2---(2)----2--(2)--2---|
|---3--------(3)--3--(3)---------------|--0---(0)--0---(0)----0--(0)--0---|
|--------------------------------------|----------------------------------|
|--------------------------------------|----------------------------------|


   E.  S  +Q    E.  S  +S   E.    Q     +S   E.  +E  S  S  +S   E.
|------------------------------|-----------------------------------|
|------------------------------|-----------------------------------|
|------------------------------|-----------------------------------|
|-11--11-(11)--11--11-(11)-11--|-11----(11)-11--(11)---11-(11)-11--|
|-12--12-(12)--12--12-(12)-12--|-12----(12)-12--(12)---12-(12)-12--|
|-14--14-(14)--14--14-(14)-14--|-14----(14)-14--(14)---14-(14)-14--|
|
|  E.  S  +Q    Q       S   E.    E. S  +Q        Q         S   E.
|------------------------------|-----------------------------------|
|--2---2--(2)---------------2--|--2--2--(2)---------------------2--|
|--2---2--(2)---------------2--|--2--2--(2)---------------------2--|
|--0---0--(0)---------------0--|--0--0--(0)---------------------0--|
|------------------------------|-----------------------------------|
|------------------------------|-----------------------------------|


   E.  S  +Q    E.  S  +S   E.    Q   +S   E.  +E  E Q
|------------------------------|-------------------------|
|------------------------------|-------------------------|
|------------------------------|-16--(16)-16--(16)-------|
|-11--11-(11)--11--11-(11)-11--|-15--(15)-15--(15)-------|
|-12--12-(12)--12--12-(12)-12--|-14--(14)-14--(14)-------|
|-14--14-(14)--14--14-(14)-14--|-13--(13)-13--(13)-------|
|
|  E.  S  +Q    Q       S   E.    Q   +S   E.  +E  E Q
|------------------------------|-------------------------|
|--2---2--(2)---------------2--|--6---(6)--6---(6)-------|
|--2---2--(2)---------------2--|--6---(6)--6---(6)-------|
|--0---0--(0)---------------0--|--3---(3)--3---(3)-------|
|------------------------------|-------------------------|
|------------------------------|-------------------------|


   Q   +S   E.  +E  E Q     Q   +S   E.  +E  E Q
|------------------------|------------------------|
|------------------------|------------------------|
|-16--(16)-16--(16)------|-16--(16)-16--(16)------|
|-15--(15)-15--(15)------|-15--(15)-15--(15)------|
|-14--(14)-14--(14)------|-14--(14)-14--(14)------|
|-13--(13)-13--(13)------|-13--(13)-13--(13)------|
|
|  Q   +S   E.  +E  E Q     Q   +S   E.  +E  E Q
|------------------------|------------------------|
|--6---(6)--6---(6)------|--6---(6)--6---(6)------|
|--6---(6)--6---(6)------|--6---(6)--6---(6)------|
|--3---(3)--3---(3)------|--3---(3)--3---(3)------|
|------------------------|------------------------|
|------------------------|------------------------|


                           Q=305
   Q   +S   E.  +E  E Q     E.  S  +Q    Q   +S   E.
|------------------------|---------------------------|
|------------------------|---------------------------|
|-16--(16)-16--(16)------|---------------------------|
|-15--(15)-15--(15)------|---------------------------|
|-14--(14)-14--(14)------|---------------------------|
|-13--(13)-13--(13)------|-13--14-(14)--14--(14)-14--|
|
|  Q   +S   E.  +E  E Q     E.  S  +Q    Q   +S   E.
|------------------------|---------------------------|
|--6---(6)--6---(6)------|--6---7--(7)---7---(7)--7--|
|--6---(6)--6---(6)------|---------------------------|
|--3---(3)--3---(3)------|--3---4--(4)---4---(4)--4--|
|------------------------|---------------------------|
|------------------------|---------------------------|


   E.  S  +Q    Q   +S   E.    E.  S  +Q    Q   +S   E.
|---------------------------|---------------------------|
|---------------------------|---------------------------|
|---------------------------|---------------------------|
|---------------------------|---------------------------|
|---------------------------|---------------------------|
|-13--14-(14)--14--(14)-14--|-13--14-(14)--14--(14)-14--|
|
|  E.  S  +Q    Q   +S   E.    E.  S  +Q    Q   +S   E.
|---------------------------|---------------------------|
|--6---7--(7)---7---(7)--7--|--6---7--(7)---7---(7)--7--|
|---------------------------|---------------------------|
|--3---4--(4)---4---(4)--4--|--3---4--(4)---4---(4)--4--|
|---------------------------|---------------------------|
|---------------------------|---------------------------|


   H     Q   +S   E.    E.  S  +Q    Q   +S   E.
|--------------------|---------------------------|
|--------------------|---------------------------|
|-13----14--(14)-13--|---------------------------|
|--------------------|---------------------------|
|--------------------|---------------------------|
|-16----16--(16)-16--|-13--14-(14)--14--(14)-14--|
|
|  H     Q   +S   E.    E.  S  +Q    Q   +S   E.
|--5-----5---(5)--5--|---------------------------|
|--------------------|--6---7--(7)---7---(7)--7--|
|--2-----2---(2)--2--|---------------------------|
|--------------------|--3---4--(4)---4---(4)--4--|
|--------------------|---------------------------|
|--------------------|---------------------------|


   E.  S  +Q    Q   +S   E.    E.  S  +Q    Q   +S   E.
|---------------------------|---------------------------|
|---------------------------|---------------------------|
|---------------------------|---------------------------|
|---------------------------|---------------------------|
|---------------------------|---------------------------|
|-13--14-(14)--14--(14)-14--|-13--14-(14)--14--(14)-14--|
|
|  E.  S  +Q    Q   +S   E.    E.  S  +Q    Q   +S   E.
|---------------------------|---------------------------|
|--6---7--(7)---7---(7)--7--|--6---7--(7)---7---(7)--7--|
|---------------------------|---------------------------|
|--3---4--(4)---4---(4)--4--|--3---4--(4)---4---(4)--4--|
|---------------------------|---------------------------|
|---------------------------|---------------------------|


   H     Q   +S   E.    E.  S  +Q    Q   +S   E.
|--------------------|---------------------------|
|--------------------|---------------------------|
|-13----14--(14)-13--|---------------------------|
|--------------------|---------------------------|
|--------------------|---------------------------|
|-16----16--(16)-16--|-13--14-(14)--14--(14)-14--|
|
|  H     Q   +S   E.    E.  S  +Q    Q   +S   E.
|--5-----5---(5)--5--|---------------------------|
|--------------------|--6---7--(7)---7---(7)--7--|
|--2-----2---(2)--2--|---------------------------|
|--------------------|--3---4--(4)---4---(4)--4--|
|--------------------|---------------------------|
|--------------------|---------------------------|


   E.  S  +Q    Q   +S   E.    E.  S  +Q    Q   +S   E.
|---------------------------|---------------------------|
|---------------------------|---------------------------|
|---------------------------|---------------------------|
|---------------------------|---------------------------|
|---------------------------|---------------------------|
|-13--14-(14)--14--(14)-14--|-13--14-(14)--14--(14)-14--|
|
|  E.  S  +Q    Q   +S   E.    E.  S  +Q    Q   +S   E.
|---------------------------|---------------------------|
|--6---7--(7)---7---(7)--7--|--6---7--(7)---7---(7)--7--|
|---------------------------|---------------------------|
|--3---4--(4)---4---(4)--4--|--3---4--(4)---4---(4)--4--|
|---------------------------|---------------------------|
|---------------------------|---------------------------|


   H     Q   +S   E.    E.  S  +Q    Q   +S   E.
|--------------------|---------------------------|
|--------------------|---------------------------|
|-13----14--(14)-13--|---------------------------|
|--------------------|---------------------------|
|--------------------|---------------------------|
|-16----16--(16)-16--|-13--14-(14)--14--(14)-14--|
|
|  H     Q   +S   E.    E.  S  +Q    Q   +S   E.
|--5-----5---(5)--5--|---------------------------|
|--------------------|--6---7--(7)---7---(7)--7--|
|--2-----2---(2)--2--|---------------------------|
|--------------------|--3---4--(4)---4---(4)--4--|
|--------------------|---------------------------|
|--------------------|---------------------------|


   E.  S  +Q    Q   +S   E.    E.  S  +Q    Q   +S   E.
|---------------------------|---------------------------|
|---------------------------|---------------------------|
|---------------------------|---------------------------|
|---------------------------|---------------------------|
|---------------------------|---------------------------|
|-13--14-(14)--14--(14)-14--|-13--14-(14)--14--(14)-14--|
|
|  E.  S  +Q    Q   +S   E.    E.  S  +Q    Q   +S   E.
|---------------------------|---------------------------|
|--6---7--(7)---7---(7)--7--|--6---7--(7)---7---(7)--7--|
|---------------------------|---------------------------|
|--3---4--(4)---4---(4)--4--|--3---4--(4)---4---(4)--4--|
|---------------------------|---------------------------|
|---------------------------|---------------------------|


   H     Q   +S   E.    E.  S  +Q    Q   +S   E.
|--------------------|---------------------------|
|--------------------|---------------------------|
|-13----14--(14)-13--|---------------------------|
|--------------------|---------------------------|
|--------------------|---------------------------|
|-16----16--(16)-16--|-13--14-(14)--14--(14)-14--|
|
|  H     Q   +S   E.    E.  S  +Q    Q   +S   E.
|--5-----5---(5)--5--|---------------------------|
|--------------------|--6---7--(7)---7---(7)--7--|
|--2-----2---(2)--2--|---------------------------|
|--------------------|--3---4--(4)---4---(4)--4--|
|--------------------|---------------------------|
|--------------------|---------------------------|


   E.  S  +Q    Q   +S   E.    E.  S  +Q    Q   +S   E.
|---------------------------|---------------------------|
|---------------------------|---------------------------|
|---------------------------|---------------------------|
|---------------------------|---------------------------|
|---------------------------|---------------------------|
|-13--14-(14)--14--(14)-14--|-13--14-(14)--14--(14)-14--|
|
|  E.  S  +Q    Q   +S   E.    E.  S  +Q    Q   +S   E.
|---------------------------|---------------------------|
|--6---7--(7)---7---(7)--7--|--6---7--(7)---7---(7)--7--|
|---------------------------|---------------------------|
|--3---4--(4)---4---(4)--4--|--3---4--(4)---4---(4)--4--|
|---------------------------|---------------------------|
|---------------------------|---------------------------|


   H     Q   +S   E.    E.  S  +Q    Q   +S   E.
|--------------------|---------------------------|
|--------------------|---------------------------|
|-13----14--(14)-13--|---------------------------|
|--------------------|---------------------------|
|--------------------|---------------------------|
|-16----16--(16)-16--|-13--14-(14)--14--(14)-14--|
|
|  H     Q   +S   E.    E.  S  +Q    Q   +S   E.
|--5-----5---(5)--5--|---------------------------|
|--------------------|--6---7--(7)---7---(7)--7--|
|--2-----2---(2)--2--|---------------------------|
|--------------------|--3---4--(4)---4---(4)--4--|
|--------------------|---------------------------|
|--------------------|---------------------------|


   E.  S  +Q    Q   +S   E.    E.  S  +Q    Q   +S   E.
|---------------------------|---------------------------|
|---------------------------|---------------------------|
|---------------------------|---------------------------|
|---------------------------|---------------------------|
|---------------------------|---------------------------|
|-13--14-(14)--14--(14)-14--|-13--14-(14)--14--(14)-14--|
|
|  E.  S  +Q    Q   +S   E.    E.  S  +Q    Q   +S   E.
|---------------------------|---------------------------|
|--6---7--(7)---7---(7)--7--|--6---7--(7)---7---(7)--7--|
|---------------------------|---------------------------|
|--3---4--(4)---4---(4)--4--|--3---4--(4)---4---(4)--4--|
|---------------------------|---------------------------|
|---------------------------|---------------------------|


                       Q=290
   H     Q   +S   E.    Q   Q   Q   Q
|--------------------|-----------------|
|--------------------|-----------------|
|-13----14--(14)-13--|-----------------|
|--------------------|-----------------|
|--------------------|-----------------|
|-16----16--(16)-16--|-13--14--14--14--|
|
|  H     Q   +S   E.    Q   Q   Q   Q
|--5-----5---(5)--5--|-----------------|
|--------------------|--6---7---7---7--|
|--2-----2---(2)--2--|--4---6---6---6--|
|--------------------|--3---4---4---4--|
|--------------------|-----------------|
|--------------------|-----------------|


                                                    Q=285
   Q   Q   Q   Q     Q   Q   Q   Q     H     H       Q   Q   Q   Q
|-----------------|-----------------|-------------|-----------------|
|-----------------|-----------------|-------------|-----------------|
|-----------------|-----------------|-13----13----|-----------------|
|-----------------|-----------------|-------------|-----------------|
|-----------------|-----------------|-12----12----|-----------------|
|-13--14--14--14--|-13--14--14--14--|-------------|-13--14--14--14--|
|
|  Q   Q   Q   Q     Q   Q   Q   Q     H     H       Q   Q   Q   Q
|-----------------|-----------------|--4-----4----|-----------------|
|--6---7---7---7--|--6---7---7---7--|-------------|--6---7---7---7--|
|--4---6---6---6--|--4---6---6---6--|--2-----2----|--4---6---6---6--|
|--3---4---4---4--|--3---4---4---4--|-------------|--3---4---4---4--|
|-----------------|-----------------|-------------|-----------------|
|-----------------|-----------------|-------------|-----------------|


                                      Q=260
                                                    Gtrs I, II
   Q   Q   Q   Q     Q   Q   Q   Q     H     H      W
|-----------------|-----------------|-------------|------|
|-----------------|-----------------|-------------|------|
|-----------------|-----------------|-13----13----|-3----|
|-----------------|-----------------|-------------|------|
|-----------------|-----------------|-12----12----|------|
|-13--14--14--14--|-13--14--14--14--|-------------|-3----|
|
|  Q   Q   Q   Q     Q   Q   Q   Q     H     H      W
|-----------------|-----------------|--4-----4----|------|
|--6---7---7---7--|--6---7---7---7--|-------------|------|
|--4---6---6---6--|--4---6---6---6--|--2-----2----|------|
|--3---4---4---4--|--3---4---4---4--|-------------|------|
|-----------------|-----------------|-------------|------|
|-----------------|-----------------|-------------|------|


  +W           +W                 W                    W
|------------|-----------------|--------------------|-------|
|------------|-----------------|--------------------|-------|
|-(3)--------|-(3)-------------|--5-----------------|-------|
|------------|-----------------|--------------------|--5----|
|------------|-----------------|--------------------|-------|
|-(3)--------|-(3)-------------|--5-----------------|--0----|
|
|  W            H     Q  E S S    H     +Q.    S  S    W
|------------|-------------5-8-|-15----(15)---------|-10----|
|------------|-----------------|-----------------12-|-------|
|------------|-----------------|--------------------|-------|
|------------|-----------------|--------------14----|-------|
|------------|-----------------|--------------------|-------|
|------------|-----------------|--------------------|-------|


  Gtr I
    Q   Q  Q  Q      H     Q   Q      Q    Q   +H         W
|---3------------|---------7--10--|--10---------------|---------|
|-------5--3--5--|----------------|-------12--(12)----|---------|
|----------------|----------------|-------------------|---3-----|
|----------------|----------------|-------------------|---------|
|----------------|----------------|-------------------|---------|
|---0------------|---0------------|-------------------|---3-----|
|
| Gtr II
|  +W               +W               +W                   W
|----------------|----------------|-------------------|---------|
|----------------|----------------|-------------------|---------|
|----------------|----------------|-------------------|---3-----|
|--(5)-----------|--(5)-----------|--(5)--------------|---------|
|----------------|----------------|-------------------|---------|
|--(0)-----------|--(0)-----------|--(0)--------------|---3-----|
|
| Gtr III
|  +W               +W               +W                  +W
|-(10)-----------|-(10)-----------|-(10)--------------|-(10)----|
|----------------|----------------|-------------------|---------|
|----------------|----------------|-------------------|---------|
|----------------|----------------|-------------------|---------|
|----------------|----------------|-------------------|---------|
|----------------|----------------|-------------------|---------|


  Gtrs I, II
   +W            +W             W                    W
|-------------|-------------|---------------------|--------------------|
|-------------|-------------|---------------------|--------------------|
|--(3)--------|--(3)--------|---5-----------------|--------------------|
|-------------|-------------|---------------------|--5-----------------|
|-------------|-------------|---------------------|--------------------|
|--(3)--------|--(3)--------|---5-----------------|--0-----------------|
|
| Gtr III
|  +W            +W            +H      +Q.    S S    H     +Q.    S  S
|-(10)--------|-(10)--------|-(10)----(10)------8-|-15----(15)---------|
|-------------|-------------|----------------10---|--------------------|
|-------------|-------------|---------------------|-----------------15-|
|-------------|-------------|---------------------|--------------15----|
|-------------|-------------|---------------------|--------------------|
|-------------|-------------|---------------------|--------------------|


  Gtr I
   E. S +S  E S +S  E. +S  E.    W            +W            W
|--3--------------------------|------------|-------------|-------|
|-----5-(5)-3-5-(5)-----------|------------|-------------|-------|
|-----------------------------|------------|-------------|--3----|
|-------------------7--(7)-9--|--7---------|--(7)--------|-------|
|-----------------------------|------------|-------------|-------|
|-----------------------------|------------|-------------|--3----|
|
| Gtr II
| +W                            +W            +W            W
|-----------------------------|------------|-------------|-------|
|-----------------------------|------------|-------------|-------|
|-----------------------------|------------|-------------|--3----|
|-(5)-------------------------|-(5)--------|--(5)--------|-------|
|-----------------------------|------------|-------------|-------|
|-(0)-------------------------|-(0)--------|--(0)--------|--3----|
|
| Gtr III
|  W                             W            +W            W
|-13--------------------------|-14---------|-(14)--------|-12----|
|-----------------------------|------------|-------------|-------|
|-----------------------------|------------|-------------|-------|
|-----------------------------|------------|-------------|-------|
|-----------------------------|------------|-------------|-------|
|-----------------------------|------------|-------------|-------|


  Gtrs I, II
  +W             +W             W             W
|--------------|------------|--------------|-----------------|
|--------------|------------|--------------|-----------------|
|-(3)----------|-(3)--------|---5----------|-----------------|
|--------------|------------|--------------|--5--------------|
|--------------|------------|--------------|-----------------|
|-(3)----------|-(3)--------|---5----------|--0--------------|
|
| Gtr III
|  H      H       W            +H     H       Q   Q   Q   Q
|--------------|-10---------|-(10)---------|-12------10--12--|
|--------11----|------------|---------8----|-----12----------|
|-12-----------|------------|--------------|-----------------|
|--------------|------------|--------------|-----------------|
|--------------|------------|--------------|-----------------|
|--------------|------------|--------------|-----------------|


                                                        Q=250
  Gtr I
   Q   H       Q     H.        Q      Q    Q   H         W
|--3---5----------|------------7--|---8---10--12------|----------------------|
|--------------3--|--5------------|-------------------|----------------------|
|-----------------|---------------|-------------------|--3-------------------|
|-----------------|---------------|-------------------|----------------------|
|-----------------|---------------|-------------------|----------------------|
|-----------------|---------------|-------------------|--3-------------------|
|
| Gtr II
| +W                +W               +W                  W
|-----------------|---------------|-------------------|----------------------|
|-----------------|---------------|-------------------|----------------------|
|-----------------|---------------|-------------------|--3-------------------|
|-(5)-------------|-(5)-----------|--(5)--------------|----------------------|
|-----------------|---------------|-------------------|----------------------|
|-(0)-------------|-(0)-----------|--(0)--------------|--3-------------------|
|
| Gtr III
|  H       Q   Q     H     Q   Q     +Q    Q   Q   Q     Q   Q   +Q.   S  S
|-----------------|-10--------12--|-(12)--------------|-----10--(10)---------|
|-------------12--|---------------|-----------15------|-12---------------11--|
|---------12------|--------9------|-------------------|----------------9-----|
|-14--------------|---------------|-------14----------|----------------------|
|-----------------|---------------|-------------------|----------------------|
|-----------------|---------------|---------------12--|----------------------|


               Q=240         Q=220
  Gtrs I, II
  +W            +W             W
|------------|-------------|--------------------|
|------------|-------------|--------------------|
|-(3)--------|--(3)--------|---5----------------|
|------------|-------------|--------------------|
|------------|-------------|--------------------|
|-(3)--------|--(3)--------|---5----------------|
|
| Gtr III
|  W            +W            +H      +Q.   S S
|-10---------|-(10)--------|-(10)----(10)-----7-|
|------------|-------------|--------------------|
|------------|-------------|----------------9---|
|------------|-------------|--------------------|
|------------|-------------|--------------------|
|------------|-------------|--------------------|


  Q=21Q=200    Q=190
   E. S +S  E.   E. S +S  E.
|-----------------------------------|
|-----------------------------------|
|--4--4-(4)-4----4--4-(4)-4---------|
|-----------------------------------|
|-----------------------------------|
|--0--0-(0)-0----0--0-(0)-0---------|
|
|  H            +Q.           S  S
|-12-----------(12)-----------------|
|-----------------------------------|
|-----------------------------------|
|-----------------------------------|
|-------------------------------14--|
|----------------------------12-----|


  Q=170     Q=150 Q=80
   E. S +S  E. E. S +S  E.     W
|--------------------------|---------*|
|--------------------------|---------*|
|--4--4-(4)-4--4--4-(4)-4--|---------*|
|--------------------------|---------*|
|--------------------------|---------*|
|--0--0-(0)-0--0--0-(0)-0--|---------*|
|
|  W                          +W
|--------------------------|---------*|
|--------------------------|---------*|
|--------------------------|---------*|
|-14-----------------------|-(14)----*|
|--------------------------|---------*|
|--------------------------|---------*|



Duration Legend
---------------
W - whole; H - half; Q - quarter; E - 8th; S - 16th; T - 32nd; X - 64th; a - acciaccatura
+ - note tied to previous; . - note dotted; .. - note double dotted
Uncapitalized letters represent notes that are staccato (1/2 duration)
Irregular groupings are notated above the duration line
Duration letters will always appear directly above the note/fret number it represents the
duration for.  Duration letters with no fret number below them represent rests.  Multi-
bar rests are notated in the form Wxn, where n is the number of bars to rest for.  Low
melody durations appear below the staff

Tablature Legend
----------------
 h   - hammer-on
 p   - pull-off
 b   - bend
 pb  - pre-bend
 r   - bend release (if no number after the r, then release immediately)
 /\  - slide into or out of (from/to "nowhere")
 s   - legato slide
 S   - shift slide
 - natural harmonic
[n]  - artificial harmonic
n(n) - tapped harmonic
 ~   - vibrato
 tr  - trill
 T   - tap
 TP  - trem. picking
 PM  - palm muting
\n/  - tremolo bar dip; n = amount to dip
 \n  - tremolo bar down
 n/  - tremolo bar up
/n\  - tremolo bar inverted dip
 =   - hold bend; also acts as connecting device for hammers/pulls
 <> - volume swell (louder/softer)
 x   - on rhythm slash represents muted slash
 o   - on rhythm slash represents single note slash

Misc Legend
-----------
 |  - bar
||  - double bar
||o - repeat start
o|| - repeat end
*|  - double bar (ending)
 :  - bar (freetime)
 $  - Segno
 &  - Coda
Tempo markers -  = BPM(8/16=s8/s16), where s8 = swing 8ths, s16 = swing 16ths

comments
We did not receive enough feedback on this tab! Please rate:
print report bad tab
1 2 3 4 5
I want to post or [tab]
guest
You may want to rate the tab now too:
select rating
Please do not post tabs as comments. Select "correction" instead!