Oops, an error
Loading. Please wait.

Ghostship Part 4 Tab

ver3
ver3

Whole song

More versions @911Tabs.com
2,550 views 1 this week
no commentswrite comment
1 2 3 4 5
accurate
x 2
add to favorites launch autoscroll
font size
0
reset
Autoscroll
+/-
esc
set tempo
stop
WARNING: You are trying to view
                                    content from Ultimate-Guitar.com
                                    in an unauthorized application,
                                    which is prohibited.

                                    Please use an official Ultimate
                                    Guitar Tabs application for iPhone,
                                    iPad or Android to access legitimate
                                    chords, guitar, bass, and drum tabs
                                    from Ultimate-Guitar.com database.

                                    Type "ultimate guitar tabs" in Apple
                                    App Store's or Android Market's
                                    search to find the application.
Ghostship Part Four Tabs

By: Jordan Lorenzo


Introduction


e|----------3h5p3p0--------------------------------------------------------|
B|--3h5p3p0---------3h5p3p0------------3-5-3-3p0---------------------------|
G|--------------------------2h4p2p0--4-------------------------------------|
D|----------------------------------2-2-2-2--------------------------------|
A|-------------------------------------------------------------------------|
E|-------------------------------------------------------------------------|

e|----------3h5p3p0------------------------5-------------------------------|
B|--3h5p3p0---------3h5p3p0-------------3/5-5p0----------------------------|
G|--------------------------2h4p2p0---4------------------------------------|
D|-----------------------------------2-2-----------------------------------|
A|-------------------------------------------------------------------------|
E|-------------------------------------------------------------------------|

e|-------------------------------------------------------------------------|
B|---------------------------------------------------------1p0-------------|
G|---4p0-4p0-4p0-4p0---7p0-7p0-7p0-7p0---2p0-2p0-2p0-2p0------0-0-4/7p0----|
D|-------------------------------------------------------------4-----------|
A|--3~~~~~~~~~~~~~~~--7~~~~~~~~~~~~~~~--2~~~~~~~~~~~~~~~--0----------------|
E|-------------------------------------------------------------------------|


e|-------------------------------------------7h8p7-------------------------|
B|---------------10101010-------------------------108----------------------|
G|--7777---------12121211----7777------------------------------------------|
D|-------77-777-------------------7-7-775----------------------------------|
A|--7777---------------------7777------------------------------------------|
E|-------77-888-------------------7-7-775----------------------------------|

e|------------------------------------------------------------7h8p7--------|
B|--------------------------10101010-------------------------------108-----|
G|--7-7-7-7-----------------12121211--7-7-7-7------------------------------|
D|----------7-7-7-7-7-7-7-7-------------------7-7-7-7-5-5-5-5--------------|
A|--7-7-7-7---------------------------7-7-7-7------------------------------|
E|----------7-7-7-7-8-8-8-8-------------------7-7-7-7-5-5-5-5--------------|


e|----------------------10/12p0--------------------------15p0--------------|
B|--12-12-12-12--10-8----------12p0--7-7-7-7--10p8--10p8-------------------|
G|--12-12-12-12-------9--------------7-7-7-7------9-----9------------------|
D|--10-10-10-10----------------------5-5-5-5-------------------------------|
A|--12-12-12-12----------------------7-7-7-7-------------------------------|
E|-------------------------------------------------------------------------|

e|----------------------10/12p0--------------------------------------------|
B|--12-12-12-12--10-8----------12p0--7-7-7-7--10p8--10p8--10p8-------------|
G|--12-12-12-12-------9--------------7-7-7-7------9-----9------------------|
D|--10-10-10-10----------------------5-5-5-5-------------------------------|
A|--12-12-12-12----------------------7-7-7-7-------------------------------|
E|-------------------------------------------------------------------------|


e|------------------------------------------------------------7h8p7--------|
B|--------------------------10101010-------------------------------108-----|
G|--7-7-7-7-----------------12121211--7-7-7-7------------------------------|
D|----------7-7-7-7-7-7-7-7-------------------7-7-7-7-5-5-5-5--------------|
A|--7-7-7-7---------------------------7-7-7-7------------------------------|
E|----------7-7-7-7-8-8-8-8-------------------7-7-7-7-5-5-5-5--------------|

e|-------------------------------------------7h8p7-------------------------|
B|---------------10101010-------------------------108----------------------|
G|--7777---------12121211----7777------------------------------------------|
D|-------77-777-------------------7-7-775----------------------------------|
A|--7777---------------------7777------------------------------------------|
E|-------77-888-------------------7-7-775----------------------------------|

e|----------------------10/12p0--------------------------15p0--------------|
B|--12-12-12-12--10-8----------12p0--7-7-7-7--10p8--10p8-------------------|
G|--12-12-12-12-------9--------------7-7-7-7------9-----9------------------|
D|--10-10-10-10----------------------5-5-5-5-------------------------------|
A|--12-12-12-12----------------------7-7-7-7-------------------------------|
E|-------------------------------------------------------------------------|
                                                                            x2
e|----------------------10/12p0--------------------------------------------|
B|--12-12-12-12--10-8----------12p0--7-7-7-7--10p8--10p8--10p8-------------|
G|--12-12-12-12-------9--------------7-7-7-7------9-----9------------------|
D|--10-10-10-10----------------------5-5-5-5-------------------------------|
A|--12-12-12-12----------------------7-7-7-7-------------------------------|
E|-------------------------------------------------------------------------|

e|----------15-----14-------------15-----14-------------15-----14p12-12~~--|
B|--15p12-----12-----12---15p12-----12-----12---15p12-----12---------------|
G|-------12-----12-------------12-----12-------------12-----12-------------|
D|-------------------------------------------------------------------------|
A|-------------------------------------------------------------------------|
E|-------------------------------------------------------------------------|

e|-------------17-------------15-------------12--12b-12b-------------------|
B|-15/12-12/15----15/12-12/15----15/12-12/15-----15b-15b-------------------|
G|-------------------------------------------------------------------------|
D|-------------------------------------------------------------------------|
A|-------------------------------------------------------------------------|
E|-------------------------------------------------------------------------|

e|-------------------------------------------------------------------------|
B|--------------------------3h5p3p0----------------------------------------|
G|--7-9--------------------------------------------------------------------|
D|--7-9-10-6-9-5-8-5-7-3-6-2-----------------------------------------------|
A|--5/7-10-6-9-5-8-5-7-3-6-2-----------------------------------------------|
E|------8--4/7-3/6-2/5-1/4-0-----------------------------------------------|


e|--------------------12--10--8--7--3--5--8888~~~~~~-----------------------|
B|-------------------------------------------------------------------------|
G|--12-12--16-16--9-9------------------------------------------------------|
D|--10-10--14-14--7-7------------------------------------------------------|
A|--12-12--15-15--9-9------------------------------------------------------|
E|-------------------------------------------------------------------------|

e|--------------------12--10--8--7--8-1012--1210--8-8----------------------|
B|-------------------------------------------------------------------------|
G|--12-12--16-16--9-9------------------------------------------------------|
D|--10-10--14-14--7-7------------------------------------------------------|
A|--12-12--15-15--9-9------------------------------------------------------|
E|-------------------------------------------------------------------------|

e|-------------------------------------------------------------------------|
B|-------------------------------------------------------------------------|
G|--12-12--16-16--9-9------------------------------------------------------|
D|--10-10--14-14--7-7------------------------------------------------------|
A|--12-12--15-15--9-9------------------------------------------------------|
E|-------------------------------------------------------------------------|

e|--0-7--------10-12--7-7--10---12h15p0-10h14p0-8h12p0-8-0-7-0-------------|
B|------0-7h8--------------------------------------------------------------|
G|-------------------------------------------------------------------------|
D|-------------------------------------------------------------------------|
A|-------------------------------------------------------------------------|
E|-------------------------------------------------------------------------|

e|--0-7-------10-12--7-7h8-7-5-5-5h7p5-0-3h5p3-0-2h3p2-0-------------------|
B|------0-7h8--------------------------0-------0-------0--1-1-3-1-0--------|
G|--------------------------------------------------------2-2-4-2-0--------|
D|-------------------------------------------------------------------------|
A|-------------------------------------------------------------------------|
E|-------------------------------------------------------------------------|

e|-------------------------------------------------------------------------|
B|-------------------------------------------------------------------------|
G|--7-9--------------------------------------------------------------------|
D|--7-9-10-6-9-5-8-5-7-3-6-2-----------------------------------------------|
A|--5/7-10-6-9-5-8-5-7-3-6-2-----------------------------------------------|
E|------8--4/7-3/6-2/5-1/4-0-----------------------------------------------|


thank you david for your binese help bye
comments
We did not receive enough feedback on this tab! Please rate:
print report bad tab
1 2 3 4 5
I want to post or [tab]
guest
You may want to rate the tab now too:
select rating
Please do not post tabs as comments. Select "correction" instead!