Oops, an error
Loading. Please wait.

Holy Tape Tab

ver1
ver1

Whole song

Interactive

More versions @911Tabs.com
9,812 views 12 this week
1 commentread comment
1 2 3 4 5
excellent!
x 5
Autoscroll
+/-
esc
set tempo
stop
Contributor
WARNING: You are trying to view
                                    content from Ultimate-Guitar.com
                                    in an unauthorized application,
                                    which is prohibited.

                                    Please use an official Ultimate
                                    Guitar Tabs application for iPhone,
                                    iPad or Android to access legitimate
                                    chords, guitar, bass, and drum tabs
                                    from Ultimate-Guitar.com database.

                                    Type "ultimate guitar tabs" in Apple
                                    App Store's or Android Market's
                                    search to find the application.
E  :---------------------------|-------------------------|
B  :--------1-p0-----------3-p1|p0-------------------1-p0|
G  :-------------2-p0----------|---2-p0------------------|
D  :3-3-3-2-----------2-p0-----|--------2-p0-3-3-3-2-----|
A  :2-2-2-1--------------------|-------------2-2-2-1-----|
E  :1-1-1-0--------------------|-------------1-1-1-0-----|

E  :-------------------------3-s5-p0---|------------------------------|
B  :----------3-p1-p0------------------|------1-p0-----------3-p1-p0--|
G  :2-p0--------------2-p0-------------|-----------2-p0--------------2|
D  :-----2-p0--------------2---------3-|3-3-2-----------2-p0----------|
A  :---------------------------------2-|2-2-1-------------------------|
E  :---------------------------------1-|1-1-0-------------------------|

E  :-------------------------|--------------------3-s5-p0-------|
B  :----------------1-p0-----|-----3-p1-p0---------------------8|
G  :P0-------------------2-p0|-------------2-p0------------9-9--|
D  :---2-p0-3-3-3-2----------|2-p0--------------2----------7-7-7|
A  :--------2-2-2-1----------|-----------------------------8-8-8|
E  :--------1-1-1-0----------|----------------------------------|

E  :------------------------------|-------------------------------|
B  :8----------------------------8|8------------------------------|
G  :--10-10-9-9-16-16-16-16--9-9--|--10-10-9-9-16-16-12-12--10-10-|
D  :7--7--7-7-7-14-14-14-14--7-7-7|7--7--7-7-7-14-14-10-10--------|
A  :8--8--8-8-8-15-15-15-15--8-8-8|8--8--8-8-8-15-15-12-12---8--8-|
E  :------------------------------|-------------------------------|

E  :----------------------------------|-----------------------|
B  :----------------------------------|----------------------8|
G  :10-10-10-10-10-10-10-10-10-10-9-9-|9-9-9-9-9-9-9-9---9-9--|
D  :------------------------------7-7-|7-7-7-7-7-7-7-7---7-7-7|
A  :-8--8--8--8--8--8--8--8--8--8-8-8-|8-8-8-8-8-8-8-8---8-8-8|
E  :----------------------------------|-----------------------|

E  :------------------------------|-------------------------------|
B  :8----------------------------8|8------------------------------|
G  :--10-10-9-9-16-16-16-16--9-9--|--10-10-9-9-16-16-12-12--10-10-|
D  :7--7--7-7-7-14-14-14-14--7-7-7|7--7--7-7-7-14-14-10-10--------|
A  :8--8--8-8-8-15-15-15-15--8-8-8|8--8--8-8-8-15-15-12-12---8--8-|
E  :------------------------------|-------------------------------|

E  :----------------------------------|------------------------|
B  :----------------------------------|------------------------|
G  :10-10-10-10-10-10-10-10-10-10-9-9-|9-9-9-9-9-9-9-9---------|
D  :------------------------------7-7-|7-7-7-7-7-7-7-7--12-14--|
A  :-8--8--8--8--8--8--8--8--8--8-8-8-|8-8-8-8-8-8-8-8--10-12--|
E  :----------------------------------|------------------------|

E  :---------------------------|---------8-----8------------|
B  :8-10---------12-13---------|8-10------------------------|
G  :---------------------------|-----8-9---9-8---9-8--------|
D  :------12-14---------12-14--|----------------------12-14-|
A  :------10-12---------10-12--|----------------------10-12-|
E  :---------------------------|----------------------------|

E  :---------------------------|-------------------------------------|
B  :-8-10---------12-13--------|-8-10--------------------0-h10-h12---|
G  :---------------------------|---------------0-h10-h12-------------|
D  :-------12-14---------12-14-|------0-h8-h10-----------------------|
A  :-------10-12---------10-12-|-------------------------------------|
E  :---------------------------|-------------------------------------|

E  :--------------------------------|--------------------------------|
B  :13-13-13-13-12-12-12-12---------|---------------13-13-13-13------|
G  :14-14-14-14-13-13-13-13-16-16-16|16-19-19-19-19-14-14-14-14-10-10|
D  :14-14-14-14-13-13-13-13-15-15-15|15-18-18-18-18-14-14-14-14------|
A  :12-12-12-12-11-11-11-11-14-14-14|14-17-17-17-17-12-12-12-12--8--8|
E  :--------------------------------|--------------------------------|

E  :---------------------------------|-----------------------------|
B  :---------------------------------|-----------------------------|
G  :10-12-10-10-9-9-9-9-9-9-5-5-5-5--|-----------------------------|
D  :------------7-7-7-7-7-7-3-3-3-3--|-----------------------------|
A  :-8--8--8--8-8-8-8-8-8-8-5-5-5-5--|--------------------------3-5|
E  :---------------------------------|5-p3-p0-5-3--5-p3-p0-5-p3----|

E  :-----------------------------|--------------------------------------|
B  :-----------------------------|--8-10-10-8-10-10-8-10-10-8-10-10-8-10|
G  :-----------------------------|--------------------------------------|
D  :-----------------------------|--------------------------------------|
A  :---------------------------3-|5-------------------------------------|
E  :-5-p3-p0-5-3--5-p3-p0-5-p3---|--------------------------------------|

E  :--------------------------------------------|
B  :10-12-13-13-12-13-13-12-13-13-12-13-13-12-13|
G  :--------------------------------------------|
D  :--------------------------------------------|
A  :--------------------------------------------|
E  :--------------------------------------------|

E  :---12-p8-p0-12-p8-p0-12-p8-p0-12-p8-p0-12-p8|
B  :13------------------------------------------|
G  :--------------------------------------------|
D  :--------------------------------------------|
A  :--------------------------------------------|
E  :--------------------------------------------|

E  :P0-11-p8-p0-11-p8-p0-13-p8-p0-13-p8-p0-13-p8|
B  :--------------------------------------------|
G  :--------------------------------------------|
D  :--------------------------------------------|
A  :--------------------------------------------|
E  :--------------------------------------------|

E  :P0-8-p5-p0-8-p5-p0-8-p5-p0-8-p5-p0-8-p5|
B  :---------------------------------------|
G  :---------------------------------------|
D  :---------------------------------------|
A  :---------------------------------------|
E  :---------------------------------------|

E  :P0-7-p4-p0-7-p4-p0-----------------|-----------------------------------|
B  :-------------------b5--8-10-10-8-10|10-8-10-10-8-10-10-----8-10-10-8-10|
G  :-----------------------------------|-------------------9-7-------------|
D  :-----------------------------------|-----------------------------------|
A  :-----------------------------------|-----------------------------------|
E  :-----------------------------------|-----------------------------------|

E  :--------------------------------|-------------------------------|
B  :10-8-10-10-8-10-10--------------|-------------------------------|
G  :-------------------9-7-9-9-9-7-7|7-------------------9-9-9-7-7-7|
D  :--------------------------------|--10-10-9-h10----7-------------|
A  :--------------------------------|--------------10---------------|
E  :--------------------------------|-------------------------------|

E  :--------------------------------|------------------------------|
B  :--------------------------------|------------------------------|
G  :------------------9-9-9-7-7-7---|----------------9-9-9-7-7-7---|
D  :10-10-9-h10----7--------------10|10-9-h10----7---------------10|
A  :------------10------------------|---------10-------------------|
E  :--------------------------------|------------------------------|

E  :----------------------------------|
B  :----------------------------0-8-p7|
G  :--------------------4-s7-p0-------|
D  :10-9-h10----7--0-h2---------------|
A  :---------10-----------------------|
E  :----------------------------------|

E  :-----------------------------------------|
B  :P0------------0-8-p7-p0------------0-8-p7|
G  :------4-s7-p0--------------4-s7-p0-------|
D  :---h2-------------------h2---------------|
A  :-----------------------------------------|
E  :-----------------------------------------|

E  :--------------------------------------------|
B  :P0------------0-8-p7-p0---------------------|
G  :------4-s7-p0-----------------12-------14---|
D  :---h2----------------------10----10---------|
A  :------------------------12----------14----15|
E  :--------------------------------------------|

E  :------------------------------------|
B  :------------------------------------|
G  :---16----------19--16-16-16-16-14-14|
D  :14----14----17-----14-14-14-14-12-12|
A  :---------19--------15-15-15-15-14-14|
E  :------------------------------------|

E  :------------------------------------|----------------------|
B  :------------------------------------|----------------------|
G  :-14-14-19-19-19-19-12-12-12-12-14-14|-14-14-7-7-7-7--------|
D  :-12-12-17-17-17-17-10-10-10-10-12-12|-12-12-5-5-5-5--------|
A  :-14-14-19-19-19-19-12-12-12-12-14-14|-14-14-7-7-7-7--------|
E  :------------------------------------|----------------------|
comments
print report bad tab
1 comment total.
0 reply
cukd7x-a2- wrote on August 15 2009, 02:46 pm

the tab is a bit unclear... all the notes are right but it doesnt make much sense as a whole... still a great job though

I want to post or [tab]
guest
You may want to rate the tab now too:
select rating
Please do not post tabs as comments. Select "correction" instead!