Oops, an error
Loading. Please wait.

Knife Fight At The Mormon Church Tab

2,222 views 1 this week
4 commentsread comments
1 2 3 4 5
not so good
x 3
Autoscroll
+/-
esc
set tempo
stop
Contributor
WARNING: You are trying to view
                                    content from Ultimate-Guitar.com
                                    in an unauthorized application,
                                    which is prohibited.

                                    Please use an official Ultimate
                                    Guitar Tabs application for iPhone,
                                    iPad or Android to access legitimate
                                    chords, guitar, bass, and drum tabs
                                    from Ultimate-Guitar.com database.

                                    Type "ultimate guitar tabs" in Apple
                                    App Store's or Android Market's
                                    search to find the application.
Knife Fight at the Mormon Church

#Intro 1A# Play 4x h=Hammer on p=Pull off
e|-------------------------------------------------------------------------------------------------------------------------|
B|----------------12---------12--------------15---------12--------------15---------12--------------------------------------|
G|-----12h14p12p0------12h14------12h14p12p0------12h14------12h14p12p0------12h14-----------------------------------------|
D|-------------------------------------------------------------------------------------------------------------------------|
A|-------------------------------------------------------------------------------------------------------------------------|
E|----|-----PLAY----2x---------|-------------------------------------------------------------------------------------------|

#Intro 1B# Play 4x p=Pull off *=Play 6-8x x=left-hand mute
e|----|-----PLAY----2x---------|-----------------|-1.-2.-3.--------------------------|---|-4.------|-----------------------|
B|----------------------------------------------------------------------15p12----------------------------------------------|
G|-----12---x12-------x12-12-12-------------------------------------------------14p12-------*------------------------------|
D|-----12---x12-------x12-12-12---12---x12-------x12----12--------------------------------12------*------------------------|
A|-----10---x10-------x10-10-10---12---x12-------x12----12---10x10------------------------12----10-------------------------|
E|--------------------------------10---x10-------x10----10---12x12------------------------10----12-------------------------|

#Intro 2A# h=Hammer on p=Pull off b=Bend
e|-------------------------------------------------------------------------------------------------------------------------|
B|----------------12---------12--------------15---------12--------------15---------12--------------------------------------|
G|-----12h14p12p0------12h14------12h14p12p0------12h14------12h14p12p0------12h14--------14b--14h16p14p0-----14p12b-------|
D|-------------------------------------------------------------------------------------------------------------------------|
A|-------------------------------------------------------------------------------------------------------------------------|
E|----|-----PLAY----2x---------|----------------------------|-1.-2.------------------|---|-3.------------|---|-4.---|------|

#Intro 2B# 
e|-------------------------------------------------------------------------------------------------------------------------|
B|-----12---------15---------12--------------------------------------------------------------------------------------------|
G|--------14p12p0------12h14------16p14p0-16p14p0-16p14p0----14p12p0-14p12p0-14p12p0------14p12b---------------------------|
D|-------------------------------------------------------------------------------------------------------------------------|
A|-------------------------------------------------------------------------------------------------------------------------|
E|----|-----PLAY----2x---------|----------------------------|-1.-2.-3.---------------|---|-4.---|--------------------------|

#Toneless 1A# <Silent>

#Toneless 1B# h=Hammer on p=Pull off 
e|-------------------------------------------------------------------------------------------------------------------------|
B|---------12---------------------12----------------------12---------------------------------------------------------------|
G|---12h14----12h14-12h14---12h14----12h14-12h14--16p14p0----12h14--16p14p0--14--12----------------------------------------|
D|-------------------------------------------------------------------------------------------------------------------------|
A|-------------------------------------------------------------------------------------------------------------------------|
E|-------------------------------------------------------------------------------------------------------------------------|

#Toneless 2A# h=Hammer on
e|-------------------------------------------------------------------------------------------------------------------------|
B|---------15----------15-------15----------15----------12----------12-------12----------12--------------------------------|
G|---12h14----12-12h14----12h14----12-12h14----12-12h14----12-12h14----12h14----12-12h14----12-----------------------------|
D|-------------------------------------------------------------------------------------------------------------------------|
A|-------------------------------------------------------------------------------------------------------------------------|
E|-------------------------------------------------------------------------------------------------------------------------|

#Toneless 2B# h=Hammer on p=Pull off
e|-------------------------------------------------------------------------------------------------------------------------|
B|---------12------------------------12h15----------------15--------------------12-----------------------------------------|
G|---12h14-------12----12---12h14p12-------12-12--12h14p0----12-12--16p14p0-----------12----12-----------------------------|
D|-------------------------------------------------------------------------------------------------------------------------|
A|-------------------------------------------------------------------------------------------------------------------------|
E|-------------------------------------------------------------------------------------------------------------------------|

#Toneless 3A# h=Hammer on p=Pull off b=Bend
e|-------------------------------------------------------------------------------------------------------------------------|
B|---------15----------15-------15----------15----------12----------12-------12--------------------------------------------|
G|---12h14----12-12h14----12h14----12-12h14----12-12h14----12-12h14----12h14-----12b---------------------------------------|
D|-------------------------------------------------------------------------------------------------------------------------|
A|-------------------------------------------------------------------------------------------------------------------------|
E|-------------------------------------------------------------------------------------------------------------------------|

#Toneless 3B# h=Hammer on p=Pull off b=Bend
e|-------------------------------------------------------------------------------------------------------------------------|
B|---------12-----------------------12-------------------------------------------------------------------------------------|
G|---12h14-------12----12----12h14-------12----12--------14---------12-----------12b---------------------------------------|
D|-------------------------------------------------------------------------------------------------------------------------|
A|-------------------------------------------------------------------------------------------------------------------------|
E|-------------------------------------------------------------------------------------------------------------------------|

#Verse 1A# h=Hammer on
e|-------------------------------------------------------------------------------------------------------------------------|
B|---12h13-15-12---12h13-15-12h13-15-12---12h13-15-------12------------12-------12------------12---------------------------|
G|-------------------------------------------------12h14----12---12h14----12h14----12---12h14------------------------------|
D|-------------------------------------------------------------------------------------------------------------------------|
A|-------------------------------------------------------------------------------------------------------------------------|
E|-------------------------------------------------------------------------------------------------------------------------|

#Verse 1B# h=Hammer on
e|-------------------------------------------------------------------------------------------------------------------------|
B|---12h13-15-12---12h13-15-12h13-15-12---12h13-15-------12------------12-------12------------12---------------------------|
G|-------------------------------------------------12h14----12---12h14----12h14----12---12h14------------------------------|
D|-------------------------------------------------------------------------------------------------------------------------|
A|-------------------------------------------------------------------------------------------------------------------------|
E|-------------------------------------------------------------------------------------------------------------------------|

#Verse 2A# h=Hammer on
e|-------------------------------------------------------------------------------------------------------------------------|
B|---12h13-15-12---12h13-15-12h13-15-12---12h13-15-------12------------12-------12------------12---------------------------|
G|-------------------------------------------------12h14----12---12h14----12h14----12---12h14------------------------------|
D|-------------------------------------------------------------------------------------------------------------------------|
A|-------------------------------------------------------------------------------------------------------------------------|
E|-------------------------------------------------------------------------------------------------------------------------|

#Verse 2B# x=left-hand mute
e|-------------------------------------------------------------------------------------------------------------------------|
B|-------------------------------------------------------------------------------------------------------------------------|
G|---12-----x-x-----------x-12-----x-x-----------x-11------------------11--------------------------------------------------|
D|----------x-x-----------x--------x-x-----------x------<ECHO>--------------<ECHO>-----------------------------------------|
A|---10-----x-x-----------x-10-----x-x-----------x-9-------------------9---------------------------------------------------|
E|-------------------------------------------------------------------------------------------------------------------------|

> Repeat Verse 1A, 2A & 1B, 2B

#Chorus 1A# *=Play 6-8x 
e|-------------------------------------------------------------------------------------------------------------------------|
B|-----*-------*------*-------*--------------------------------------------------------------------------------------------|
G|---12------11-----14------16------12-12---12-12-12---12-12-12---12-12-12----11-11-11---11-11-11---11-14-14---14-14-14----|
D|-------------------------------------------------------------------------------------------------------------------------|
A|---10------9------12------14------10-10---10-10-10---10-10-10---10-10-10----9--9--9----9--9--9----9--12-12---12-12-12----|
E|-------------------------------------------------------------------------------------------------------------------------|

#Chorus 1B# *=Play 6-8x
e|-------------------------------------------------------------------------------------------------------------------------|
B|-----*-------*-----------------------------------------------------------------------------------------------------------|
G|---12------11------*-------*------12-12---12-12-12---12-12-12---12-12-12----11-11-11---11-11-11---11-14-14---14-14-14----|
D|------------------5-------5----------------------------------------------------------------------------------------------|
A|---10------9------5-------5-------10-10---10-10-10---10-10-10---10-10-10----9--9--9----9--9--9----9--12-12---12-12-12----|
E|------------------3-------3----------------------------------------------------------------------------------------------|

#Bridge 1A# <Silent>

#Bridge 1B# h=Hammer on
e|-------------------------------------------------------------------------------------------------------------------------|
B|---12h13-15-12---12h13-15-12h13-15-12---12h13-15-------12------------12-------12------------12---------------------------|
G|-------------------------------------------------12h14----12---12h14----12h14----12---12h14------------------------------|
D|-------------------------------------------------------------------------------------------------------------------------|
A|-------------------------------------------------------------------------------------------------------------------------|
E|-------------------------------------------------------------------------------------------------------------------------|

#Bridge 2A# h=Hammer on
e|-------------------------------------------------------------------------------------------------------------------------|
B|---12h13--15--12---------------------------------12h13--15-----------15----------13--------------------------------------|
G|-------------------------------------------------------------------------------------------------------------------------|
D|-------------------------------------------------------------------------------------------------------------------------|
A|-------------------------------------------------------------------------------------------------------------------------|
E|-------------------------------------------------------------------------------------------------------------------------|

#Bridge 2B# x=left-hand mute
e|-------------------------------------------------------------------------------------------------------------------------|
B|-------------------------------------------------------------------------------------------------------------------------|
G|---12-----x-x-----------x-12-----x-x-----------x-11------------------11--------------------------------------------------|
D|----------x-x-----------x--------x-x-----------x------<ECHO>--------------<ECHO>-----------------------------------------|
A|---10-----x-x-----------x-10-----x-x-----------x-9-------------------9---------------------------------------------------|
E|-------------------------------------------------------------------------------------------------------------------------|

> Play Verse 1A, 2A, Chorus 1A & Verse 1B, 2B, Chorus 1B

#Bridge 3A# h=hammer on
e|-------------------------------------------------------------------------------------------------------------------------|
B|------------------------------------------------13----13-------------12----12--------------------------------------------|
G|------------------------------------------12h14----14----14--12--14-----12-------12----------13--------------12----12----|
D|------------------------------------------------------------------------------------------------14----12--12----12-------|
A|---------------------------------------------------------------------------------10--------------------------------------|
E|-----------------------------------------|-----------PLAY---------4x---------|--|-------------PLAY------2x------------|--|

#Bridge 3B# h=hammer on
e|-------------------------------------------------------------------------------------------------------------------------|
B|---------13----13-------------12----12----------13----13-------------12----12----------13----13--------------12----12----|
G|---12h14----14----14--12--14-----12-------12h14----14----14--12--14-----12-------12h14----14----14----12--14----12-------|
D|-------------------------------------------------------------------------------------------------------------------------|
A|-------------------------------------------------------------------------------------------------------------------------|
E|--|-------PLAY-------2x---------------|--|-----------PLAY---------4x---------|--|-------------PLAY------2x------------|--|

#Bridge 4A# %=pause
e|--------------------------------------------------------------------------------------|-1.------------|-|-2.-|-----------|
B|-------------------------------------------------------------------------------------------------------------------------|
G|-------------%%%-------11-11---11-11-11---11-11-11---11-12-12----11-11---11-11-11---11-11-11---11-9--9----12b------------|
D|-------------%%%---------------------------------------------------------------------------------------------------------|
A|-------------%%%-------9--9----9--9--9----9--9--9----9--10-10----9--9----9--9--9----9--9--9----9--7--7----10b------------|
E|-------------------------------------------------------------------------------------------------------------------------|

#Bridge 4B# %=pause *=play 4x
e|--------------------------------------------------------------------------------------|-1.------------|-|-2.--------|----|
B|------------------------------------------------------------------------------------------------------------------*------|
G|---12--11----%%%-------11-11---11-11-11---11-11-11---11-12-12----11-11---11-11-11---11-11-11---11-9--9---11-11---9-------|
D|-------------%%%---------------------------------------------------------------------------------------------------------|
A|---10--9-----%%%-------9--9----9--9--9----9--9--9----9--10-10----9--9----9--9--9----9--9--9----9--7--7----9--9---7-------|
E|-------------------------------------------------------------------------------------------------------------------------|

#Verse 3A# p=pull off h=Hammer on
e|-------------------------------------------------------------------------------------------------------------------------|
B|---17-17-17p15-17-17p15-17-17p15-17-17p15-17p15-17p15-17-17-17p15-17-17p15-12-12-12h13-15p13p12-15-15p13p12--------------|
G|-------------------------------------------------------------------------------------------------------------------------|
D|-------------------------------------------------------------------------------------------------------------------------|
A|-------------------------------------------------------------------------------------------------------------------------|
E|-------------------------------------------------------------------------------------------------------------------------|

#Verse 3B#
e|-------------------------------------------------------------------------------------------------------------------------|
B|---11--11----11--11--11----11--11--11----11--12--12-----11--11----11--11--11----11--11--11----11--9---9------------------|
G|-------------------------------------------------------------------------------------------------------------------------|
D|-------------------------------------------------------------------------------------------------------------------------|
A|---9---9-----9---9---9-----9---9---9-----9---10--10-----9---9-----9---9---9-----9---9---9-----9---7---7------------------|
E|-------------------------------------------------------------------------------------------------------------------------|

#Verse 4A h=hammer on p=pull off
e|-------------------------------------------------------------------------------------------------------------------------|
B|---12-12h13-15-12-12-12-13-13-13-15-15-15-13-13-13-12-12-12h13p12----12----12--------------------------------------------|
G|------------------------------------------------------------------14----12----12-12-12-14--------------------------------|
D|-------------------------------------------------------------------------------------------------------------------------|
A|-------------------------------------------------------------------------------------------------------------------------|
E|-------------------------------------------------------------------------------------------------------------------------|

#Verse 4B#
e|-------------------------------------------------------------------------------------------------------------------------|
B|---11--11----11--11--11----11--11--11----11--12--12-----11--11----11--11--11----11--11--11----11--9---9------------------|
G|-------------------------------------------------------------------------------------------------------------------------|
D|-------------------------------------------------------------------------------------------------------------------------|
A|---9---9-----9---9---9-----9---9---9-----9---10--10-----9---9-----9---9---9-----9---9---9-----9---7---7------------------|
E|-------------------------------------------------------------------------------------------------------------------------|

#Outro 1A# *=triplets #=play sequence 2x
e|-----*---*---*---*-------------------*---*---*---*-----------------------------------------------------------------------|
B|---15--12--13--12----*-------------15--12--13--12---*------------------------#-----------#--------#----------------------|
G|-------------------12--12-14-12-------------------12---12-12h14-14--12h14p12----12h14p12-12h14p12----12-12-12h14---------|
D|-------------------------------------------------------------------------------------------------------------------------|
A|-------------------------------------------------------------------------------------------------------------------------|
E|--|-----PLAY------8x-----------|---------------------|-1.-3.------|-|-2.------|-|-4.-8.------------|-|-5.-6.-7.--|-------|

#Outro 1B#
e|---15-14-15-14-15-14-15-14-15-14--17-15-17-15-17-15-17-15-17-15--20-17-20-17-20-17-20-17-20-17--19-20-22-19-20-19--------|
B|------------------------------------------------------------------------------------------------------------------202220-|
G|-------------------------------------------------------------------------------------------------------------------------|
D|-------------------------------------------------------------------------------------------------------------------------|
A|-------------------------------------------------------------------------------------------------------------------------|
E|--|----PLAY-------2x-----------|-|-------PLAY------2x---------|--|-------PLAY------2x---------|-|----PLAY-----2x---------|

#Outro 1B (cont)# Play 4x *=play 6-8x
e|-------------------------------------------------------------------------------------------------------------------------|
B|--------------*----*-----------------*-----------------------------------------------------------------------------------|
G|-------------5----7-----------------5-----*------------------------------------------------------------------------------|
D|---2-2-2-2---5----7-----2-2-2-2-----5----5-------------------------------------------------------------------------------|
A|---2-2-2-2---3----5-----2-2-2-2-----3----5-------------------------------------------------------------------------------|
E|---0-0-0-0--------------0-0-0-0----------3-------------------------------------------------------------------------------|

> Play Intro 1A & 1B
comments
We did not receive enough feedback on this tab! Please rate:
print report bad tab
1 2 3 4 5
4 comments total. Showing first comments.
0 reply
CrashedTheShow3 wrote on July 17 2007, 02:19 pm

What record is this on?

0 reply
CrashedTheShow3 wrote on July 17 2007, 02:20 pm

As well as Nike Shoes Chain Wallet. Never heard of either of them.

0 reply
Thin-Lizzy wrote on October 4 2007, 01:58 pm

This is a Thirty Years war song, the band TFOT were in before the TFOT.

I want to post or [tab]
guest
You may want to rate the tab now too:
select rating
Please do not post tabs as comments. Select "correction" instead!