Oops, an error
Loading. Please wait.

Laces Out Dan Tab

ver1
ver1

Whole song

More versions @911Tabs.com
4,552 views 9 this week
5 commentsread comments
1 2 3 4 5
accurate
x 6
Autoscroll
+/-
esc
set tempo
stop
Contributor
Difficulty
intermediate
WARNING: You are trying to view
                                    content from Ultimate-Guitar.com
                                    in an unauthorized application,
                                    which is prohibited.

                                    Please use an official Ultimate
                                    Guitar Tabs application for iPhone,
                                    iPad or Android to access legitimate
                                    chords, guitar, bass, and drum tabs
                                    from Ultimate-Guitar.com database.

                                    Type "ultimate guitar tabs" in Apple
                                    App Store's or Android Market's
                                    search to find the application.
----------------------------------------------------------------------------
                     -Laces Out, Dan! - The Fall Of Troy-
----------------------------------------------------------------------------
Tabbed by: rayputo/suavo
Email:

Tuning: standard EADGBe

first tab, spent a whole afternoon working on it. its mostly correct, just not sure 
some parts.


intro:

|--------------------------------------------------------------------------|
|--------------------------------------5---8--5----------------------------|
|-----------------------------------3--------------------------------------|
|--------------------------------------------------------------------------|
|--------------------------------------------------------------------------|
|--0-0-0-0-0-0-0-0-0-0-0-0-0-0-0-0-----------------------------------------|
pm|* * * * * * * * * * * * * * * *  *  *   *   *|


|--------------------------------------------------------------------------|
|--------------------------------------------------------------------------|
|-9-9-9-9-9-9-9-9-9-9-9-9-9-9-9-9-9-9-9-9-9-9-9-9-9-9-9--/0----------------|
|-8-8-8-8-8-8-8-8-8-8-8-8-8-8-8-8-8-8-8-8-8-8-8-8-8-8-8-/-0----------------|
|-7-7-7-7-7-7-7-7-7-7-7-7-7-7-7-7-7-7-7-7-7-7-7-7-7-7-7/--0----------------|
|--------------------------------------------------------------------------|


|--------------------------------------------------------------------------|
|--------------------------------------------------------------------------|
|-----3-4------------------3-4-3-4-----3-4-2--7-7-7--10-10-10--------------|
|-5-2-3-4-2-5-2------------3-4-3-4-5-2-3-4-2--7-7-7--10-10-10--------------|
|-5-2-1-2-2-5-2------------1-2-1-2-5-2-1-2-2--5-5-5--8--8--8---------------|
|-3-0-----0-3-0--0-0-0-0-0---------3-0-----0-------------------------------|
              pm|* * * * *|

|----------------18^-------------------------------------------------------|
|--------------------------------------------------------9-9-9-------------|
|-----3-4--------------3-4-3-4-----3-4-2-7-7-7--10-10-10-9-9-9-------------|
|-5-2-3-4-2-5-2--------3-4-3-4-5-2-3-4-2-7-7-7--10-10-10-7-7-7-------------|
|-5-2-1-2-2-5-2--------1-2-1-2-5-2-1-2-2-5-5-5--8--8--8--------------------|
|-3-0-----0-3-0----------------3-0-----0-----------------------------------|

|--------------------------------------------------------------------------|
|--------------------------------------------------------------------------|
|-4p0------4-4-4p0-4p0-4-4-7p0-9p0-----7p0-----3p0-------------------------|
|----4p2p0-4-4---------4-4---------5-5-----5-5-----------------------------|
|----------2-2---------2-2---------5-5-----5-5-----------------------------|
|----------------------------------3-3-----3-3-----------------------------|
intro end.

verse:
|--------------------------------------------------------------------------|
|--------------------------------------------------------------------------|
|-4p0------4-4-4p0-4p0-4-4-7p0-9p0-----7p0-----3p0-------------------------|
|----4p2p0-4-4---------4-4---------5-5-----5-5-----------------------------|
|----------2-2---------2-2---------5-5-----5-5-----------------------------|
|----------------------------------3-3-----3-3-----------------------------|
interrupt this call....

|--------------------------------------------------------------------------|
|--------------------------------------------------------------------------|
|-4p0------4-4-4p0-4p0-4-4-7p0-9p0-----7p0-----3p0-------------------------|
|----4p2p0-4-4---------4-4---------5-5-----5-5-----------------------------|
|----------2-2---------2-2---------5-5-----5-5-----------------------------|
|----------------------------------3-3-----3-3-----------------------------|

|--------------------------------------------------------------------------|
|12p0-12p0-15p0-15p0-12p0-12p0-15p0-17p0-12p0-12p0-20p0-19p0-22p0-20p0-22p0|
|--------------------------------------------------------------------------|
|--------------------------------------------------------------------------|
|--------------------------------------------------------------------------|
|--------------------------------------------------------------------------|
but its not......

|--------------------------------------------------------------------------|
|22p0-12p0-12p0-15p0-15p0-12p0-12p0-15p0-17p0-12p0-12p0-15p0-15p0----------|
|--------------------------------------------------------------------------|
|--------------------------------------------------------------------------|
|--------------------------------------------------------------------------|
|--------------------------------------------------------------------------|


|--------------------------------------------------------------------------|
|--------------------------------------------------------------------------|
|-----3-4------------------3-4-3-4-----3-4-2--7-7-7--10-10-10--------------|
|-5-2-3-4-2-5-2------------3-4-3-4-5-2-3-4-2--7-7-7--10-10-10--------------|
|-5-2-1-2-2-5-2------------1-2-1-2-5-2-1-2-2--5-5-5--8--8--8---------------|
|-3-0-----0-3-0--0-0-0-0-0---------3-0-----0-------------------------------|
              pm|* * * * *|
wash your hands.....

|----------------18^-------------------------------------------------------|
|--------------------------------------------------------9-9-9-------------|
|-----3-4--------------3-4-3-4-----3-4-2-7-7-7--10-10-10-9-9-9-------------|
|-5-2-3-4-2-5-2--------3-4-3-4-5-2-3-4-2-7-7-7--10-10-10-7-7-7-------------|
|-5-2-1-2-2-5-2--------1-2-1-2-5-2-1-2-2-5-5-5--8--8--8--------------------|
|-3-0-----0-3-0----------------3-0-----0-----------------------------------|


|--------------------------------------------------------------------------|
|--------------------------------------------------------------------------|
|-4-4-7p0-9p0---4p0-4p0-3p0-3p0-5p0-5p0------------------------------------|
|-4-4---------5------------------------------------------------------------|
|-2-2---------5------------------------------------------------------------|
|-------------3------------------------------------------------------------|

|--------------------------------------------------------------------------|
|12p0-12p0-15p0-15p0-12p0-12p0-15p0-17p0-12p0-12p0-20p0-19p0-22p0-20p0-22p0|
|--------------------------------------------------------------------------|
|--------------------------------------------------------------------------|
|--------------------------------------------------------------------------|
|--------------------------------------------------------------------------|

|--------------------------------------------------------------------------|
|22p0-12p0-12p0-15p0-15p0-12p0-12p0-15p0-17p0-12p0-12p0-15p0-15p0----------|
|--------------------------------------------------------------------------|
|--------------------------------------------------------------------------|
|--------------------------------------------------------------------------|
|--------------------------------------------------------------------------|

|-----------------------------------------------------------------6-6------|
|-----------------------------------------------------------------5-5------|
|--------------------------------------------------------------------------|
|-5-5-5-5-5-5--------------8-------------8---5-8-5-2-5-8-5-2-5-2-----------|
|-5-5-5-5-5-5--------------7-------------7---4-7-4-1-4-7-4-1-4-1-----------|
|-3-3-3-3-3-3--0-0-0-0-0-0-6-0-0-0-0-0-0-6---3-6-3-0-3-6-3-0-3-0-----------|
            pm|* * * * * *| |* * * * * *|

|------------------------------------------------------6-6-----------------|
|------------------------------------------------------5-5-----------------|
|--------------------------------------------------------------------------|
|-------------8-------------8---5-8-5-2-5-8-5-2-5-2------------------------|
|-------------7-------------7---4-7-4-1-4-7-4-1-4-1------------------------|
|-0-0-0-0-0-0-6-0-0-0-0-0-0-6---3-6-3-0-3-6-3-0-3-0------------------------|
 |* * * * * *| |* * * * * *|

|------------------------------------------------------6-6-----------------|
|------------------------------------------------------5-5-----------------|
|--------------------------------------------------------------------------|
|-------------8-------------8---5-8-5-2-5-8-5-2-5-2------------------------|
|-------------7-------------7---4-7-4-1-4-7-4-1-4-1------------------------|
|-0-0-0-0-0-0-6-0-0-0-0-0-0-6---3-6-3-0-3-6-3-0-3-0------------------------|
 |* * * * * *| |* * * * * *|


|------------------------------------------------------6-6-6---------------|
|------------------------------------------------------5-5-5---------------|
|--------------------------------------------------------------------------|
|-------------8-------------8---5-8-5-2-5-8-5-2-5-2------------------------|
|-------------7-------------7---4-7-4-1-4-7-4-1-4-1------------------------|
|-0-0-0-0-0-0-6-0-0-0-0-0-0-6---3-6-3-0-3-6-3-0-3-0------------------------|
 |* * * * * *| |* * * * * *|


|--------------------------------------------------------------------------|
|---------7-7---------------------3----------------7-7---------------------|
|-6-6-6-6-x-x-6-6---5-----7-7--5--6-3---6-6-6-6-6--x-x---6-6---6-7---------|
|-x-x-x-x-4-4-x-x---x-----x-x--x--x-x--------------4-4---x-x---x-x---------|
|-4-4-4-4-----4-4---7-----5-5--3--5-1--------------------4-4---4-5---------|
|--------------------------------------------------------------------------|
look in my eyes...


|--------------------------------------------------------------------------|
|-----------6-6-6---------------7-7-----------------------4--6-6-6---------|
|-7-7---4---4-4-4---6-6-6-6-----x-x----6-6--6---7--/7-7---3--4-4-4---------|
|-x-x---3-----------x-x-x-x-----4-4----x-x--x---x-/-x-x--------------------|
|-5-5---------------4-4-4-4------------4-4--4---4/--5-5--------------------|
|--------------------------------------------------------------------------|

|--------------------------------------------------------------------------|
|-7-8-9-10-8-9-10-11-9-10-11-12-10-11-12-13-11-12-13-14--------------------|
|--------------------------------------------------------------------------|
|--------------------------------------------------------------------------|
|--------------------------------------------------------------------------|
|--------------------------------------------------------------------------|

|--------------------------------------------------------------------------|
|--------------------------------------------------------------------------|
|----10-10----10-10----10-10-----------------------------------------------|
|-9--9--9--9--9--9--9--9--9------------------------------------------------|
|-8--8--8--8--8--8--8--8--8------------------------------------------------|
|-7--------7--------7------------------------------------------------------|

|--------------------------------------------------------------------------|
|-7-8-9-10-8-9-10-11-9-10-11-12-10-11-12-----------------------------------|
|--------------------------------------------------------------------------|
|--------------------------------------------------------------------------|
|--------------------------------------------------------------------------|
|--------------------------------------------------------------------------|


|--------------------------------------------------------------------------|
|--------------------------------------------------------------------------|
|----10-10----10-10----10-10-----------------------------------------------|
|-9--9--9--9--9--9--9--9--9------------------------------------------------|
|-8--8--8--8--8--8--8--8--8------------------------------------------------|
|-7--------7--------7------------------------------------------------------|


|--------------------------------------------------------------------------|
|-7-8-9-10-8-9-10-11-9-10-11-12-10-11-12-13-11-12-13-14--------------------|
|--------------------------------------------------------------------------|
|--------------------------------------------------------------------------|
|--------------------------------------------------------------------------|
|--------------------------------------------------------------------------|


|--------------------------------------------------------------------------|
|--------------------------------------------------------------------------|
|----10-10----10-10----10-10-----------------------------------------------|
|-9--9--9--9--9--9--9--9--9------------------------------------------------|
|-8--8--8--8--8--8--8--8--8------------------------------------------------|
|-7--------7--------7------------------------------------------------------|

|--------------------------------------------------------------------------|
|-7-8-9-10-8-9-10-11-9-10-11-12-10-11-12-----------------------------------|
|--------------------------------------------------------------------------|
|--------------------------------------------------------------------------|
|--------------------------------------------------------------------------|
|--------------------------------------------------------------------------|

|----------------------------------------------------------18^-------------|
|--------------------------------------------------------------------------|
|----10-10----10-10----10-10--------------------3-4------------------------|
|-9--9--9--9--9--9--9--9--9------5-5-5-5----5-2-3-4-2-5-2------------------|
|-8--8--8--8--8--8--8--8--8------5-5-5-5----5-2-1-2-2-5-2------------------|
|-7--------7--------7------------3-3-3-3----3-0-----0-3-0------------------|


| /  slide up
| h  hammer-on
| p  pull-off
| ~  vibrato
| +  harmonic
| x  Mute
| ^  bend
5 comments total. Showing first comments.
0 reply
bigjoe711 wrote on June 28 2006, 01:09 pm

pretty good man

0 reply
matddors wrote on July 16 2006, 02:54 pm

very nice

0 reply
bananax182 wrote on November 18 2006, 04:11 pm

pretty good
My only concern would be that the song isn't in all three finger powerchords. I'm pretty darn sure he uses double stops for a lot of those chords.

I want to post or [tab]
guest
You may want to rate the tab now too:
select rating
Please do not post tabs as comments. Select "correction" instead!