Oops, an error
Loading. Please wait.

Baby Fratelli Tab

ver3
ver3

Whole song

Interactive

More versions @911Tabs.com
3,885 views 12 this week
2 commentsread comments
1 2 3 4 5
excellent!
x 5
Autoscroll
+/-
esc
set tempo
stop
Contributor
Difficulty
novice
Hey! There's an official Ultimate Guitar app which is ideal
for learning songs when you're away from computer. Get the app
WARNING: You are trying to view
                                    content from Ultimate-Guitar.com
                                    in an unauthorized application,
                                    which is prohibited.

                                    Please use an official Ultimate
                                    Guitar Tabs application for iPhone,
                                    iPad or Android to access legitimate
                                    chords, guitar, bass, and drum tabs
                                    from Ultimate-Guitar.com database.

                                    Type "ultimate guitar tabs" in Apple
                                    App Store's or Android Market's
                                    search to find the application.
This is my first tab so i'm sorry if its wrong.


                            PM                            PM   
        
E||-----------------------------|-----------------------------|
B||-----------------------------|-----------------------------|
G||----------------x-7-7--7-7---|----------------x-7-7--7-7---|
D||--5---5-5-------x-7-7--7-7---|--5---5-5-------x-7-7--7-7---|
A||--5---5-5-x-x-x-x-5-5--5-0---|--5---5-5-x-x-x-x-5-5--5-0---|
E||--3---3-3--------------------|--3---3-3--------------------|


                         PM                                
    
-----------------------------|----------------------------|
-----------------------------|----------------------------|
----------------x-7-7--7-7---|----------------x-7-7--7----|
--5---5-5-------x-7-7--7-7---|--5---5-5-------x-7-7--7----|
--5---5-5-x-x-x-x-5-5--5-0---|--5---5-5-x-x-5-x-5-5--5----|
--3---3-3--------------------|--3---3-3--------------0----|


                         PM                            PM   
  -----------------------------|-----------------------------|
-----------------------------|-----------------------------|
----------------x-7-7--7-7---|----------------x-7-7--7-7---|
--5---5-5-------x-7-7--7-7---|--5---5-5-------x-7-7--7-7---|
--5---5-5-x-x-x-x-5-5--5-0---|--5---5-5-x-x-x-x-5-5--5-0---|
--3---3-3--------------------|--3---3-3--------------------|


                         PM                            PM   
    
-----------------------------|-----------------------------|
-----------------------------|-----------------------------|
----------------x-7-7--7-7---|----------------x-7-7--7-7---|
--5---5-5-------x-7-7--7-7---|--5---5-5-------x-7-7--7-7---|
--5---5-5-x-x-x-x-5-5--5-0---|--5---5-5-x-x-x-x-5-5--5-0---|
--3---3-3----------------0---|--3---3-3----------------0---|


                         PM                            PM   
    
-----------------------------|-----------------------------|
-----------------------------|-----------------------------|
----------------x-7-7--7-7---|----------------x-7-7--7-7---|
--5---5-5-------x-7-7--7-7---|--5---5-5-------x-7-7--7-7---|
--5---5-5-x-x-x-x-5-5--5-0---|--5---5-5-x-x-x-x-5-5--5-0---|
--3---3-3--------------------|--3---3-3--------------------|


                         PM                                
    
-----------------------------|----------------------------|
-----------------------------|----------------------------|
----------------x-7-7--7-7---|----------------x-7-7--7----|
--5---5-5-------x-7-7--7-7---|--5---5-5-------x-7-7--7----|
--5---5-5-x-x-x-x-5-5--5-0---|--5---5-5-x-x-5-x-5-5--5----|
--3---3-3--------------------|--3---3-3--------------0----|


                         PM                            PM   
    
-----------------------------|-----------------------------|
-----------------------------|-----------------------------|
----------------x-7-7--7-7---|----------------x-7-7--7-7---|
--5---5-5-------x-7-7--7-7---|--5---5-5-------x-7-7--7-7---|
--5---5-5-x-x-x-x-5-5--5-0---|--5---5-5-x-x-x-x-5-5--5-0---|
--3---3-3--------------------|--3---3-3--------------------|


                         PM                            PM   
   
-----------------------------|-----------------------------|
-----------------------------|-----------------------------|
----------------x-7-7--7-7---|----------------x-7-7--7-7---|
--5---5-5-------x-7-7--7-7---|--5---5-5-------x-7-7--7-7---|
--5---5-5-x-x-x-x-5-5--5-0---|--5---5-5-x-x-x-x-5-5--5-0---|
--3---3-3----------------0---|--3---3-3----------------0---|


                         PM                            PM   
  
-----------------------------|-----------------------------|
-----------------------------|-----------------------------|
----------------x-7-7--7-7---|----------------x-7-7--7-7---|
--5---5-5-------x-7-7--7-7---|--5---5-5-------x-7-7--7-7---|
--5---5-5-x-x-x-x-5-5--5-0---|--5---5-5-x-x-x-x-5-5--5-0---|
--3---3-3--------------------|--3---3-3--------------------|


                         PM                                
    
-----------------------------|----------------------------|
-----------------------------|----------------------------|
----------------x-7-7--7-7---|----------------x-7-7--7----|
--5---5-5-------x-7-7--7-7---|--5---5-5-------x-7-7--7----|
--5---5-5-x-x-x-x-5-5--5-0---|--5---5-5-x-x-5-x-5-5--5----|
--3---3-3--------------------|--3---3-3--------------0----|


                         PM                            PM   
     
-----------------------------|-----------------------------|
-----------------------------|-----------------------------|
----------------x-7-7--7-7---|----------------x-7-7--7-7---|
--5---5-5-------x-7-7--7-7---|--5---5-5-------x-7-7--7-7---|
--5---5-5-x-x-x-x-5-5--5-0---|--5---5-5-x-x-x-x-5-5--5-0---|
--3---3-3--------------------|--3---3-3--------------------|


                         PM                            PM   
   
-----------------------------|-----------------------------|
-----------------------------|-----------------------------|
----------------x-7-7--7-7---|----------------x-7-7--7-7---|
--5---5-5-------x-7-7--7-7---|--5---5-5-------x-7-7--7-7---|
--5---5-5-x-x-x-x-5-5--5-0---|--5---5-5-x-x-x-x-5-5--5-0---|
--3---3-3----------------0---|--3---3-3----------------0---|


                         PM                            PM   
   
-----------------------------|-----------------------------|
-----------------------------|-----------------------------|
----------------x-7-7--7-7---|----------------x-7-7--7-7---|
--5---5-5-------x-7-7--7-7---|--5---5-5-------x-7-7--7-7---|
--5---5-5-x-x-x-x-5-5--5-0---|--5---5-5-x-x-x-x-5-5--5-0---|
--3---3-3--------------------|--3---3-3--------------------|


                         PM                                
   
-----------------------------|----------------------------|
-----------------------------|----------------------------|
----------------x-7-7--7-7---|----------------x-7-7--7----|
--5---5-5-------x-7-7--7-7---|--5---5-5-------x-7-7--7----|
--5---5-5-x-x-x-x-5-5--5-0---|--5---5-5-x-x-5-x-5-5--5----|
--3---3-3--------------------|--3---3-3--------------0----|


                         PM                            PM   
    
-----------------------------|-----------------------------|
-----------------------------|-----------------------------|
----------------x-7-7--7-7---|----------------x-7-7--7-7---|
--5---5-5-------x-7-7--7-7---|--5---5-5-------x-7-7--7-7---|
--5---5-5-x-x-x-x-5-5--5-0---|--5---5-5-x-x-x-x-5-5--5-0---|
--3---3-3--------------------|--3---3-3--------------------|


                         PM                            PM  
-----------------------------|----------------------------|
-----------------------------|----------------------------|
----------------x-7-7--7-7---|----------------x-7-7--7-7--|
--5---5-5-------x-7-7--7-7---|--5---5-5-------x-7-7--7-7--|
--5---5-5-x-x-x-x-5-5--5-0---|--5---5-5-x-x-x-x-5-5--5-0--|
--3---3-3----------------0---|--3---3-3----------------0--|


     
----------------------|-----------------------|----------------------|
----------------------|-----------------------|----------------------|
--4----4----7----7----|--5----5----5--5----5--|--5----5----5----5----|
--5----5----7----7----|--5----5----5--5----5--|--5----5----5----5----|
--5----5----5----5----|--3----3----3--3----3--|--3----3----3----3----|
--3----3--------------|-----------------------|----------------------|


                                            G#5                          
   
-----------------------|------------------------|-----------------------|
-----------------------|------------------------|-----------------------|
-----------------------|------------------------|-----7----7----7----7--|
--5----5----5----5--5--|--5----5----5----5--6---|--6--7----7----7----7--|
--5----5----5----5--5--|--5----5----5----5--6---|--6--5----5----5----5--|
--3----3----3----3--3--|--3----3----3----3--4---|--4--------------------|


     
----------------------|----------------------|----------------------|
----------------------|----------------------|----------------------|
--7----7----7----7----|----------------------|----------------------|
--7----7----7----7----|--5----5----5----5----|--5----5----5----5----|
--5----5----5----5----|--5----5----5----5----|--5----5----5----5----|
----------------------|--3----3----3----3----|--3----3----3----3----|


 
-----------------------|----------------------|-----------------------|
-----------------------|----------------------|-----------------------|
--5----5----5--5----5--|--5----5----5----5----|-----------------------|
--5----5----5--5----5--|--5----5----5----5----|--5----5----5----5--5--|
--3----3----3--3----3--|--3----3----3----3----|--5----5----5----5--5--|
-----------------------|----------------------|--3----3----3----3--3--|


                    G#5                                                 
   
------------------------|-----------------------|----------------------|
------------------------|-----------------------|----------------------|
------------------------|-----7----7----7----7--|--7----7----7----7----|
--5----5----5----5--6---|--6--7----7----7----7--|--7----7----7----7----|
--5----5----5----5--6---|--6--5----5----5----5--|--5----5----5----5----|
--3----3----3----3--4---|--4--------------------|----------------------|


                                                                 PM   
  
-------------------|-------------------|-----------------------------|
-------------------|-------------------|-----------------------------|
--7----------------|-------------------|----------------x-7-7--7-7---|
--7----------------|-------------------|--5---5-5-------x-7-7--7-7---|
--5----------------|--L----------------|--5---5-5-x-x-x-x-5-5--5-0---|
-------------------|-------------------|--3---3-3--------------------|


                         PM                            PM   
   
-----------------------------|-----------------------------|
-----------------------------|-----------------------------|
----------------x-7-7--7-7---|----------------x-7-7--7-7---|
--5---5-5-------x-7-7--7-7---|--5---5-5-------x-7-7--7-7---|
--5---5-5-x-x-x-x-5-5--5-0---|--5---5-5-x-x-x-x-5-5--5-0---|
--3---3-3--------------------|--3---3-3--------------------|


                                                      PM   
   
----------------------------|-----------------------------|
----------------------------|-----------------------------|
----------------x-7-7--7----|----------------x-7-7--7-7---|
--5---5-5-------x-7-7--7----|--5---5-5-------x-7-7--7-7---|
--5---5-5-x-x-5-x-5-5--5----|--5---5-5-x-x-x-x-5-5--5-0---|
--3---3-3--------------0----|--3---3-3--------------------|


                         PM                            PM   
   
-----------------------------|-----------------------------|
-----------------------------|-----------------------------|
----------------x-7-7--7-7---|----------------x-7-7--7-7---|
--5---5-5-------x-7-7--7-7---|--5---5-5-------x-7-7--7-7---|
--5---5-5-x-x-x-x-5-5--5-0---|--5---5-5-x-x-x-x-5-5--5-0---|
--3---3-3--------------------|--3---3-3----------------0---|


                         PM                            PM   
     
-----------------------------|-----------------------------|
-----------------------------|-----------------------------|
----------------x-7-7--7-7---|----------------x-7-7--7-7---|
--5---5-5-------x-7-7--7-7---|--5---5-5-------x-7-7--7-7---|
--5---5-5-x-x-x-x-5-5--5-0---|--5---5-5-x-x-x-x-5-5--5-0---|
--3---3-3----------------0---|--3---3-3--------------------|


                         PM                            PM   
   
-----------------------------|-----------------------------|
-----------------------------|-----------------------------|
----------------x-7-7--7-7---|----------------x-7-7--7-7---|
--5---5-5-------x-7-7--7-7---|--5---5-5-------x-7-7--7-7---|
--5---5-5-x-x-x-x-5-5--5-0---|--5---5-5-x-x-x-x-5-5--5-0---|
--3---3-3--------------------|--3---3-3--------------------|


                                                      PM   
    
----------------------------|-----------------------------|
----------------------------|-----------------------------|
----------------x-7-7--7----|----------------x-7-7--7-7---|
--5---5-5-------x-7-7--7----|--5---5-5-------x-7-7--7-7---|
--5---5-5-x-x-5-x-5-5--5----|--5---5-5-x-x-x-x-5-5--5-0---|
--3---3-3--------------0----|--3---3-3--------------------|


                         PM                            PM   
  
-----------------------------|-----------------------------|
-----------------------------|-----------------------------|
----------------x-7-7--7-7---|----------------x-7-7--7-7---|
--5---5-5-------x-7-7--7-7---|--5---5-5-------x-7-7--7-7---|
--5---5-5-x-x-x-x-5-5--5-0---|--5---5-5-x-x-x-x-5-5--5-0---|
--3---3-3--------------------|--3---3-3----------------0---|


                         PM                                          
                 
----------------------------|-------------------|-------------------|
----------------------------|-------------------|-------------------|
----------------x-7-7--7-7--|--5----------------|--5----------------|
--5---5-5-------x-7-7--7-7--|--5----------------|--6----------------|
--5---5-5-x-x-x-x-5-5--5-0--|--3----------------|--6----------------|
--3---3-3----------------0--|-------------------|--4----------------|


   
-------------------|-------------------|--------------------------|
-------------------|-------------------|-------------------1------|
--1----------------|--6----------------|------0------0------------|
--2----------------|--7----------------|---------------------2--0-|
--2----------------|--7----------------|---------2-----3----------|
--0----------------|--5----------------|--3-----------------------|


      
----------2------------|--------------------------|----------2---3--------|
----3---------3---3----|-------------------1------|----3-------------3----|
--------2--------------|------0------0------------|--------2--------------|
--L--------------------|---------------------2--0-|--L--------------------|
-----------------------|---------2-----3----------|-----------------------|
-----------------------|--3-----------------------|-----------------------|


--------------------------|----------2------------|-------------------------
-------------------1------|----3---------3--------|-------------------1-----
------0------0------------|--------2--------------|------0------0-----------
---------------------2--0-|--L--------------------|---------------------2---
---------2-----3----------|-----------------------|---------2-----3---------
--3-----------------------|-----------------------|--3----------------------


   
---------------------|------------------|-----------------|
----3----------------|------------------|-----------------|
--------2------------|-------------9----|-------7----7----|
--L------------------|--10----9----9----|--7----7----7----|
---------------------|--10----9----7----|--7----5----5----|
---------------------|---8----7----0----|--5--------------|


                         PM                            PM   
  
-----------------------------|-----------------------------|
-----------------------------|-----------------------------|
----------------x-7-7--7-7---|----------------x-7-7--7-7---|
--5---5-5-------x-7-7--7-7---|--5---5-5-------x-7-7--7-7---|
--5---5-5-x-x-x-x-5-5--5-0---|--5---5-5-x-x-x-x-5-5--5-0---|
--3---3-3--------------------|--3---3-3--------------------|


                         PM                                
      
-----------------------------|----------------------------|
-----------------------------|----------------------------|
----------------x-7-7--7-7---|----------------x-7-7--7----|
--5---5-5-------x-7-7--7-7---|--5---5-5-------x-7-7--7----|
--5---5-5-x-x-x-x-5-5--5-0---|--5---5-5-x-x-5-x-5-5--5----|
--3---3-3--------------------|--3---3-3--------------0----|


                         PM                            PM   
    
-----------------------------|-----------------------------|
-----------------------------|-----------------------------|
----------------x-7-7--7-7---|----------------x-7-7--7-7---|
--5---5-5-------x-7-7--7-7---|--5---5-5-------x-7-7--7-7---|
--5---5-5-x-x-x-x-5-5--5-0---|--5---5-5-x-x-x-x-5-5--5-0---|
--3---3-3--------------------|--3---3-3--------------------|


                         PM                            PM   
    
-----------------------------|-----------------------------|
-----------------------------|-----------------------------|
----------------x-7-7--7-7---|----------------x-7-7--7-7---|
--5---5-5-------x-7-7--7-7---|--5---5-5-------x-7-7--7-7---|
--5---5-5-x-x-x-x-5-5--5-0---|--5---5-5-x-x-x-x-5-5--5-0---|
--3---3-3----------------0---|--3---3-3----------------0---|


                         PM                            PM   
     
-----------------------------|-----------------------------|
-----------------------------|-----------------------------|
----------------x-7-7--7-7---|----------------x-7-7--7-7---|
--5---5-5-------x-7-7--7-7---|--5---5-5-------x-7-7--7-7---|
--5---5-5-x-x-x-x-5-5--5-0---|--5---5-5-x-x-x-x-5-5--5-0---|
--3---3-3--------------------|--3---3-3--------------------|


                         PM                                
       
-----------------------------|----------------------------|
-----------------------------|----------------------------|
----------------x-7-7--7-7---|----------------x-7-7--7----|
--5---5-5-------x-7-7--7-7---|--5---5-5-------x-7-7--7----|
--5---5-5-x-x-x-x-5-5--5-0---|--5---5-5-x-x-5-x-5-5--5----|
--3---3-3--------------------|--3---3-3--------------0----|


                         PM                            PM   
    
-----------------------------|-----------------------------|
-----------------------------|-----------------------------|
----------------x-7-7--7-7---|----------------x-7-7--7-7---|
--5---5-5-------x-7-7--7-7---|--5---5-5-------x-7-7--7-7---|
--5---5-5-x-x-x-x-5-5--5-0---|--5---5-5-x-x-x-x-5-5--5-0---|
--3---3-3--------------------|--3---3-3--------------------|


                         PM                            PM   
      
-----------------------------|----------------------------||
-----------------------------|----------------------------||
----------------x-7-7--7-7---|----------------x-7-7--7-7--||
--5---5-5-------x-7-7--7-7---|--5---5-5-------x-7-7--7-7--||
--5---5-5-x-x-x-x-5-5--5-0---|--5---5-5-x-x-x-x-5-5--5-0--||
--3---3-3----------------0---|--3---3-3----------------0--||




comments
print report bad tab
2 comments total.
0 reply
Gavage wrote on July 19 2007, 04:29 pm

This is exactly what I'm hearing. There's all these complicated bar chords for this song, but it sounds perfect as these simple power chords. I was going to post this as my first tab aswell. Well in there mate.

0 reply
stephenson2 wrote on July 21 2007, 12:18 pm

cheers Gavage.

I want to post or [tab]
guest
You may want to rate the tab now too:
select rating
Please do not post tabs as comments. Select "correction" instead!