Oops, an error
Loading. Please wait.

Costello Music Tab

ver1
ver1

Album

More versions @911Tabs.com
7,679 views 9 this week
19 commentsread comments
1 2 3 4 5
accurate
x 11
add to favorites launch autoscroll
font size
0
reset
Autoscroll
+/-
esc
set tempo
stop
Contributor
Difficulty
intermediate
WARNING: You are trying to view
                                    content from Ultimate-Guitar.com
                                    in an unauthorized application,
                                    which is prohibited.

                                    Please use an official Ultimate
                                    Guitar Tabs application for iPhone,
                                    iPad or Android to access legitimate
                                    chords, guitar, bass, and drum tabs
                                    from Ultimate-Guitar.com database.

                                    Type "ultimate guitar tabs" in Apple
                                    App Store's or Android Market's
                                    search to find the application.
This is the entire album tab for  *Costello Music* by The Fratellis. Please leave a 
if you have anything to say or email me on MandoDiao@hotmail.co.uk

1.Henrietta
2.Flathead
3.Country Boys And City Girls
4.Whistle For The Choir
5.Chelsea Dagger
6.For The Girl
7.Doginabag
8.Creepin` Up The Backstairs
9. Vince The Loveable Stoner
10. Everybody Knows You Cried Last Night
11. Baby Fratelli
12. Got Ma Nuts From A Hippy
13. Ole Black `n` Blue Eyes


1.	Henrietta

Intro - its chords strummed down on the top 3 strings
        then up on the bottom 3 strings (same for verse)

    B

e|-----7----7----7----------7----7----7----------7---7---7-----------|-7-|---|
B|-----7----7----7----------7----7----7----------7---7---7-----------|-7-|---|
G|-----8----8----8----------8----8----8----------8---8---8-----------|-8-|-x9|
D|--9-----9----9----9-9-9-9----9----9----9-9-9-9---9---9---9-9-9-9---|-9-|---|
A|--9-----9----9----9-9-9-9----9----9----9-9-9-9---9---9---9-9-9-9---|-9-|---|
E|--7-----7----7----7-7-7-7----7----7----7-7-7-7---7---7---7-7-7-7---|-7-|---|

Verse -

   "Henrietta we got no flowers for you, Just these three miserable c**ts,
             Sitting on the back seat banging on the off beat"
                                   OR
 "Dear Henrietta we're just three lonely boys, Though the girls love us we're
           so Into you incredibly we'd love to see you terribly"

    B                   G#                  F#                      D

e|----7---7---7-----------4---4---4-----------2---2---2-----------|-10-|-----|
B|----7---7---7-----------4---4---4-----------2---2---2-----------|-10-|-----|
G|----8---8---8-----------5---5---5-----------3---3---3-----------|-11-|-x8--|
D|--9---9---9---9-9-9-9\6---6---6---6-6-6-6\4---4---4---4-4-4-4---|-12-|-----|
A|--9---9---9---9-9-9-9\6---6---6---6-6-6-6\4---4---4---4-4-4-4---|-12-|-----|
E|--7---7---7---7-7-7-7\4---4---4---4-4-4-4\2---2---2---2-2-2-2---|-10-|-----|

 "We know you love us and you probably do, Although you're husband may cut us
             He's such an animal though everything is possible "
                                    OR
 "We'd love to hate you but we don't have no choice, Come be our wa ha ha ha
                Honey, honey three four one time once more"

    B                   G#                  F#                      D

e|----7---7---7-----------4---4---4-----------2---2---2-----------|-10-|-----|
B|----7---7---7-----------4---4---4-----------2---2---2-----------|-10-|-----|
G|----8---8---8-----------5---5---5-----------3---3---3-----------|-11-|-x8--|
D|--9---9---9---9-9-9-9\6---6---6---6-6-6-6\4---4---4---4-4-4-4---|-12-|-----|
A|--9---9---9---9-9-9-9\6---6---6---6-6-6-6\4---4---4---4-4-4-4---|-12-|-----|
E|--7---7---7---7-7-7-7\4---4---4---4-4-4-4\2---2---2---2-2-2-2---|-10-|-----|

Pre-Chorus -

                 "Give us a kiss and maybe we can go out,
              It's hard to miss you when you follow us about"


    E         F#         B A# A G#   E         F#          B       G#

e|--0-0-#-0-0/2-2-#-2-2/--7-6-5-4----0-0-#-0-0/2-2-#-2-2/--7777777744444444--|
B|--0-0-#-0-0/2-2-#-2-2/--7-6-5-4----0-0-#-0-0/2-2-#-2-2/--7777777744444444--|
G|--1-1-#-1-1/3-3-#-3-3/--8-7-6-4----1-1-#-1-1/3-3-#-3-3/--8888888855555555--|
D|--2-2-#-2-2/4-4-#-4-4/--9-8-7-6----2-2-#-2-2/4-4-#-4-4/--9999999966666666--|
A|--2-2-#-2-2/4-4-#-4-4/--9-8-7-6----2-2-#-2-2/4-4-#-4-4/--9999999966666666--|
E|--0-0-#-0-0/2-2-#-2-2/--7-6-5-4----0-0-#-0-0/2-2-#-2-2/--7777777744444444--|


                "Buy us some shoes and maybe take us for cola
               We'll get you there in some filthy big gondola"

    E         F#         B A# A G#   E         F#          B       G#

e|--0-0-#-0-0/2-2-#-2-2/--7-6-5-4----0-0-#-0-0/2-2-#-2-2/--7777777744444444--|
B|--0-0-#-0-0/2-2-#-2-2/--7-6-5-4----0-0-#-0-0/2-2-#-2-2/--7777777744444444--|
G|--1-1-#-1-1/3-3-#-3-3/--8-7-6-4----1-1-#-1-1/3-3-#-3-3/--8888888855555555--|
D|--2-2-#-2-2/4-4-#-4-4/--9-8-7-6----2-2-#-2-2/4-4-#-4-4/--9999999966666666--|
A|--2-2-#-2-2/4-4-#-4-4/--9-8-7-6----2-2-#-2-2/4-4-#-4-4/--9999999966666666--|
E|--0-0-#-0-0/2-2-#-2-2/--7-6-5-4----0-0-#-0-0/2-2-#-2-2/--7777777744444444--|

Chorus -

                "Clean out the bank and bump off your daddy
         You can come live with us among the has beens and the addicts
               These are crazy times down at Costello music
    You can answer the phone and talk nice anyway you choose it , come on"

    B     C#     E    G       F#

e|--7>----9->----0>---3-3-3-3-2-2-2-2----------------------------------------|
B|--7>----9->----0>---3-3-3-3-2-2-2-2----------------------------------------|
G|--8>----10>----1>---4-4-4-4-3-3-3-3-----repeat once------------------------|
D|--9>----11>----2>---5-5-5-5-4-4-4-4----------------------------------------|
A|--9>----11>----2>---5-5-5-5-4-4-4-4----------------------------------------|
E|--7>----9->----0>---3-3-3-3-2-2-2-2----------------------------------------|

Then same chords as:

Verse
Pre-Chorus
Chorus

Then For bridge, use the same chords for the verse, but with a pause for the
"wa wa wa waaaaa" bits obviously.

Pre-chorus
Chorus

Outro -

                     "wah come on! wah come on!" etc

    B      A# A     G#      A A#           B      A# A   G#        G F#  D

e|--7-7-7-7-6-5--#--4-4-4-4-5-6-#----------7-7-7-7-6-5-#-4-4-4-4-4-3-2>--10>-|
B|--7-7-7-7-6-5--#--4-4-4-4-5-6-#----------7-7-7-7-6-5-#-4-4-4-4-4-3-2>--10>-|
G|--8-8-8-8-7-6--#--5-5-5-5-6-7-#--repeat--8-8-8-8-7-6-#-5-5-5-5-5-4-3>--11>-|
D|--9-9-9-9-8-7--#--6-6-6-6-7-8-#---once---9-9-9-9-8-7-#-6-6-6-6-6-5-4>--12>-|
A|--9-9-9-9-8-7--#--6-6-6-6-7-8-#---then---9-9-9-9-8-7-#-6-6-6-6-6-5-4>--12>-|
E|--7-7-7-7-6-5--#--4-4-4-4-5-6-#----------7-7-7-7-6-5-#-4-4-4-4-4-3-2>--10>-|


2.	Flathead


~~Chords~~
_______|E A D G B e|
F      |1 3 3 2 1 1|
C      |x 3 2 0 1 0|
E      |0 2 2 1 0 0|
Am     |x 0 2 2 1 0|
C bar  |x 3 5 5 5 x|
G      |3 5 5 4 3 3|

~~Bass Riff~~


|--------------------|--------------------|
|--------------------|--------------------|
|--------------------|--------------------|
|--------------------|--------------------|
|-3-33-0-00-33-0-000-|-3-33-0-00-33-0-000-|
|--------------------|--------------------|

~~Intro~~

Bass Riff x2

~~Verse 1~~

           (B       A     S    S          R     I    F    F)
Just because she feeds me well and she made me talk dirty in a pink hotel

  F           C         E       Am   F              C        E        A
doesn't mean she's got eyes for me, she might just want my bones you see

                (B       A     S    S          R     I    F    F)
hey flathead dont you get mean she's the second best killer that i have ever seen

       F         C        E         Am F       C             E      Am
they dont come much more sick than you i could go on if you want me to

             (B       A     S    S          R     I    F    F)
it's just so wrong so very nice i told you once and you killed me twice

   F            C          E           Am     F         C           E     Am
i saw you one time at the back of the club chewing on glass and a ticket stub

~~Bridge~~
    F                                G          F                   G
i heard they kicked the boy till he bled then stood and said oh my god till she said

~~Chorus~~

             ~~Guitar 1~~

|-----12----12-------13-----15---|
|---13----13--13---13------------|
|-12----12-------14----14/16--16-|
|--------------------------------|
|--------------------------------|
|--------------------------------|

             ~~Guitar 2~~

C major bar chord        F          G


bara bap bara ra ra bara bap bara ra ra ra... etc

~~Verse 2~~

               (B       A     S    S          R     I    F    F)
everybody knows you're the one to call when the girls get ugly at the back of the wall

    F       C              E      Am       F        C         E           Am
josephine says you got a bleedin nose so taking it with her wherever she goes

           (B       A     S    S          R     I    F    F)
hey flathead don't check me in well hers is a tonic and mine is a gin

       F         C         E         Am      F          C          E     Am
they dont come much more slick than you i'd drive your car if you ask me to

~~Bridge 2~~

          F                      G           F                       G
said the boy's not right in the head so he stood and got a kickin instead till she said


~~Chorus~~

             ~~Guitar 1~~

|-----12----12-------13-----15---|
|---13----13--13---13------------|
|-12----12-------14----14/16--16-|
|--------------------------------|
|--------------------------------|
|--------------------------------|

             ~~Guitar 2~~

C major bar chord        F          G


bara bap bara ra ra bara bap bara ra ra ra... etc

~~Random Fill~~

C major bar chord              F               G             x4


~~Verse 3~~

 F  C  E  Am      F  C  E  Am       F  C  E  Am       F  C  E  Am
aaaaaaaaaaaaah  aaaaaaaaaaaaaah   aaaaaaaaaaaaaah   aaaaaaaaaaaaaah


~~Bridge 2~~

          F                      G           F                       G
said the boy's not right in the head so he stood and got a kickin instead till she said


~~Chorus~~

             ~~Guitar 1~~

|-----12----12-------13-----15---|
|---13----13--13---13------------|
|-12----12-------14----14/16--16-|
|--------------------------------|
|--------------------------------|
|--------------------------------|

             ~~Guitar 2~~

C major bar chord        F          G


bara bap bara ra ra bara bap bara ra ra ra... etc


~~Outro~~

           ~~Guitar 2~~

|--------------------|--------------------|
|--------------------|--------------------|
|--------------------|--------------------|
|--------------------|--------------------|
|-3-33-0-00-33-0-000-|-3-33-0-00-33-0-000-|
|--------------------|--------------------|

           ~~Guitar 1~~

|-15-12----12-15-12----------------------------------------------------------|
|-------15----------15-13-15^17-13----------------13----------15*13----------|
|----------------------------------14-------12*14----14*12*14-------14*12-14-|
|-------------------------------------12*14----------------------------------|
|----------------------------------------------------------------------------|
|----------------------------------------------------------------------------|


|-14^15-12-14----------------------------------------------------------|
|------------15*13-15^17-13----13-13*15-13-----------------------------|
|---------------------------14-------------14*12-14*12-----------------|
|------------------------------------------------------14*12-----------|
|------------------------------------------------------------15*12-12--|
|----------------------------------------------------------------------|

|-22-20----------20----------22-20-----------------------22-20----------20-------|
|-------22-22-20----20-22----------22-22-20-20-----------------22-22-20----20-22-|
|----------------------------------------------21-19\17--------------------------|
|--------------------------------------------------------------------------------|
|--------------------------------------------------------------------------------|
|--------------------------------------------------------------------------------|

|-22-20-------------------|
|-------22-20-------------|
|-------------21-19-17----|
|----------------------19-|
|-------------------------|
|-------------------------|

3.	Whistle For Choir
E     |0  7  9  9  9  7  |
G#m   |x  11 13 13 12 11 |
G     |x  10 12 12 12 10 |
F#m   |x  9  11 11 10 9  |
B     |7  9  9  8  7  7  |
D     |10 12 12 11 10 10 |
F     |x  8  10 10 9  8  |
Em    |x  7  9  9  8  7  |
A     |5  7  7  6  5  5  |
G#m¹  |4  6  6  4  4  4  |
F#    |2  4  4  3  2  2  |

--Intro--
 E   G#m  G  F#m B

 E
Well it's a big big city and it's always the same
         G#m
Can never be too pretty tell me you your name
   G  F#m                                          B
Is it out of line if I were so bold to say "Would you be mine"?

   E
Because I may be a beggar and you maybe the queen
          G#m
I know I maybe on a downer am still ready to dream
     G   F#m                          B
Now it's 3 o'clock time it takes for you to talk

               E                             G#m
So if you're lonely why'd you say your not lonely
             G   F#m
Oh your a silly girl, I know I hurt it so
      B
It's just like you to come and go
      E                        G#m
you know me no you don't even know me
               G  F#m
Your so sweet to try, oh my, you caught my eye
   B
A girl like you's just irresistible

E  G#m G F#m

             E
Well it's a big big city and the lights are all out
          G#m
But it's much as I can do you know to figure you out
    G   F#m
And I must confess, my hearts in broken pieces
         B
And my heads a mess
         E
And it's 4 in the morning, and I'm walking along
            G#m
Beside the ghost of every drinker here who has ever done wrong
     G   F#m
And it's you, woo hoo
                                     B
That's got me going crazy for the things you do

             E                      G#m
So if your crazy I don't care you amaze me
              G  F#m
Oh your a stupid girl, oh me, oh my, you talk
  B
I die, you smile, you laugh, I cry
      E                             G#m
And only, a girl like you could be lonely
               G  F#m
And it's a crying shame, if you would think the same
   B
A boy like me's just irresistible

--Whistle Solo--
D  F#m F Em A B E G#m G F#m B A

G#m¹ F#      E                               G#m
So if your lonely, why'd you say you're not lonely
             G  F#m
Oh your a silly girl, I know I hurt it so
       B        A      G#m¹    F#
It's just like you to come and go
      E                         G#m
And know me, no you don't even know me
              G  F#m
Your so sweet to try oh my, you caught my eye
   B
A girl like you's just irresistible

4.	Chelsea Dagger
Intro

e|-----------------------------------------------------------------|
B|-----------------------------------------------------------------|
G|--------------------------------------------------7---7---7---7--|
D|---------------------------------7-7-7-7-7-7-777-77---7---7---7--|
A|-5-5-5-5-5-5-555-5-5-5-5-5-5-555-5-5-5-5-5-5-555-55---5---5---5--|
E|-3-3-3-3-3-3-333-3-3-3-3-3-3-333---------------------------------|


Pre-Verse

e|----------------|
B|----------------|
G|---------7------|
D|--5------7-x16--|
A|--5-x16--5------|
E|--3-------------|


Verse

e|---------------------------------------------------------------------|
B|---------------------------------------------------------------------|
G|------------------------------------------------------9-9--9-x-7--7--|
D|--5-555-555-55555-7-777-777-77777-10-10-10-10-9-9-999-9-9--9-x-7--7--|
A|--5-555-555-55555-7-777-777-77777-10-10-10-10-9-9-999-7-7--7-x-5--5--|
E|--3-333-333-33333-5-555-555-55555-8--8--8--8--7-7-777----------------|


Bridge

e|----------------------|----------------------|
B|----------------------|---------(x2)---------|
G|---------(x2)---------|----------------------|
D|----------------------|--7-7777-7777-777777--|
A|--5-5555-5555-555555--|--5-5555-5555-555555--|
E|--3-3333-3333-333333--|----------------------|


e|----------------------|----------------------------|
B|----------------------|----------------------------|
G|---------(x2)---------|--7--7--77-7--7--7--777777--|
D|----------------------|--7--7--77-7--7--7--777777--|
A|--5-5555-5555-555555--|--5--5--55-5--5--5--555555--|
E|--3-3333-3333-333333--|----------------------------|
                     (pick slide at end on seperate guitar)


Chorus

e|-------(x3)---------|--------------------|
B|--------------------|--------------------|
G|----------5-5--7-7--|-----------7-7-7-7--|
D|-5-5-5-5--5-5--7-7--|--7-7-7-7--7-7-7-7--|
A|-5-5-5-5--3-3--5-5--|--7-7-7-7--5-5-5-5--|
E|-3-3-3-3------------|--5-5-5-5-----------|

| /  slide up
| \  slide down
| h  hammer-on
| p  pull-off
| ~  vibrato
| +  harmonic
| x  Mute note

5.	For the girl

C
well she said i know but i just can't tell
G
everything you've just been saying
C
lucy was there aswell
G
the kids in the band were playing

C
no one can hear a word i tell
G
what the girl was singing
C
see she must've been 16 or 18
G
i'm just past caring

C                  Am
she was into the stones when
Dm             C    G
i was into the ro--ses
C                    Am
she was breaking  my bones when
Dm                  C   G
i was busting their no--ses
C                   Am
she would tell me a secret
Dm                  C    G
i would lose it the next day
C                      Am
young love pleases you easy
Dm                  C   G
makes you sick in a bad way

E                 Am
all the while the girls sang
E               Am
la la la la and she sang
E               Am
kickings for my sweetheart
E              Am   G     F
bruises that i just don't miss


and she said "i can't love you anymore than this!"

6.	Doginabag

Dog-in-a-bag" by The Fratellis
Standard Tuning

Chords
G;  3,5,5,4,3,3
A#; 6,8,8,7,6,6
C;  8,10,10,9,8,8
C1; x,3,5,5,5,3
A;  5,7,7,6,5,5
D;  x,5,7,7,7,5
D1; 10,12,12,11,10,10
Em; x,7,9,9,8,7
B;  7,9,9,8,7,7

intro
|G       A#  C  |x4

            |G          A#  C           |G
  A#  C
Well you got it so good,      You live for the action,
|G                 A#  C                  |G
       A#   C   |C1        A#   C
 Used to be a has-been now you got yourself some satisfaction,
  |C1       A#  C       |G        A#   C
        A#     C
A dog in a bag and a bone.
              |A#                  |A             D
|G         A#   C   |G      A#  C |x3
But you're lost in the rain, 21 million miles from home.

           |G            A#   C    |G
  C
You got brand new shoes, A healthy fixa - tion,
   |G        A#  C       |G         A#  C  |C1        A#   C
An Atomic heart and a two for one education.
        |C1               A#  C         |G
   C    |G        A#    C
You're breaking my heart all the way.
            |A#                              |A
                  |G       A#  C|x2
With yer dog in a bag I need your badness just to get through the day.

|G        A#  C  |x4             |C1      A#
| x2
|A#       |A  D  |G   A#  C
     |

              |Em                      |B
Well it’s a million o clock. Too hot to sleep,
           |Em                                   |A
A rotten taste in my mouth, And my eyes are deep.
          |C
There's nothing much really going on up here,
    |D
I'm holding on for dear life and one more beer.
 |Em                                |B
I guess you could say it's a sick little show,
  |Em                            |A
A bottle of troubles and a bed full of woe
    |C                          |C
It's easy to see without looking too far,
       |D                                     |D
You’d have to be a saint to be as sick as you are.

|G      A#  C   |x4

      |G           A#     C        |G
     A#     C
Well, half the world's asleep, The rest of them are dreaming.
|G           A# C     |G              A#
   C              |C1           A#   C
 God forbid if you forget to close the door as you're leaving.
|C1          A#   C     |G          A#      C
I hate to see you in a bind.
            |A#                           |A
       |G        A#  C  |G     A#  C
With yer dog in a bag, sleeping next to your ridiculous mind.
            |A#                           |A
       |G        A#  C  |G     A#  C
With yer dog in a bag, sleeping next to your ridiculous mind.
            |A#                           |A
       |G        A#  C   |G     A#  C
With yer dog in a bag, sleeping next to your ridiculous mind
|G      A#    C   |x4

7.	Creepin` up the backstairs

Intro
    G   A#   A  G#    G   A#  A G#
e|--------------------------------|
B|--------------------------------|
G|--------------------------------|
D|-5-5-8-8-7-7-6-6---5-5-8-8--7-6-| x2
A|-5-5-8-8-7-7-6-6---5-5-8-8--7-6-|
E|-3-3-6-6-5-5-4-4---3-3-6-6--5-4-|

    G   A#   A  G#    G   A#  A G#
e|-3-3-6-6-5-5-4-4---3-3-6-6--5-4-|
B|-3-3-6-6-5-5-4-4---3-3-6-6--5-4-|
G|-4-4-7-7-6-6-5-5---4-4-7-7--6-5-|
D|-5-5-8-8-7-7-6-6---5-5-8-8--7-6-| x2
A|-5-5-8-8-7-7-6-6---5-5-8-8--7-6-|
E|-3-3-6-6-5-5-4-4---3-3-6-6--5-4-|

Verse
    G     E     A         D
e|-3-3---0-0---5-5---10-10-10-10-|
B|-3-3---0-0---5-5---10-10-10-10-|
G|-4-4---1-1---6-6---11-11-11-11-| x6
D|-5-5---2-2---7-7---12-12-12-12-|
A|-5-5---2-2---7-7---12-12-12-12-|
E|-3-3---0-0---5-5---10-10-10-10-|

Bridge
    G     E     A#   A
e|-3-3---0-0---6-6--5-5-|
B|-3-3---0-0---6-6--5-5-|
G|-4-4---1-1---7-7--6-6-| x4
D|-5-5---2-2---8-8--7-7-|
A|-5-5---2-2---8-8--7-7-|
E|-3-3---0-0---6-6--5-5-|

Chorus
    G   A#   A  G#    G   A#  A G#
e|-3-3-6-6-5-5-4-4---3-3-6-6--5-4-|
B|-3-3-6-6-5-5-4-4---3-3-6-6--5-4-|
G|-4-4-7-7-6-6-5-5---4-4-7-7--6-5-|
D|-5-5-8-8-7-7-6-6---5-5-8-8--7-6-| x4
A|-5-5-8-8-7-7-6-6---5-5-8-8--7-6-|
E|-3-3-6-6-5-5-4-4---3-3-6-6--5-4-|

Verse
    G     E     A         D
e|-3-3---0-0---5-5---10-10-10-10-|
B|-3-3---0-0---5-5---10-10-10-10-|
G|-4-4---1-1---6-6---11-11-11-11-| x6
D|-5-5---2-2---7-7---12-12-12-12-|
A|-5-5---2-2---7-7---12-12-12-12-|
E|-3-3---0-0---5-5---10-10-10-10-|

Bridge
e|-3-3---0-0---6-6--5-5-|
B|-3-3---0-0---6-6--5-5-|
G|-4-4---1-1---7-7--6-6-| x4
D|-5-5---2-2---8-8--7-7-|
A|-5-5---2-2---8-8--7-7-|
E|-3-3---0-0---6-6--5-5-|

Chorus
    G   A#   A  G#    G   A#  A G#
e|-3-3-6-6-5-5-4-4---3-3-6-6--5-4-|
B|-3-3-6-6-5-5-4-4---3-3-6-6--5-4-|
G|-4-4-7-7-6-6-5-5---4-4-7-7--6-5-|
D|-5-5-8-8-7-7-6-6---5-5-8-8--7-6-| x4
A|-5-5-8-8-7-7-6-6---5-5-8-8--7-6-|
E|-3-3-6-6-5-5-4-4---3-3-6-6--5-4-|

    C    D#    D      C#      C    D#     D  C#
e|--8--8-11-11-10-10--9--9----8--8-11-11--10-9-----|
B|--8--8-11-11-10-10--9--9----8--8-11-11--10-9-----|
G|--9--9-12-12-11-11-10-10----9--9-12-12--11-10----|
D|-10-10-13-13-12-12-11-11---10-10-13-13--12-11----| x2
A|-10-10-13-13-12-12-11-11---10-10-13-13--12-11----|
E|--8--8-11-11-10-10--9--9----8--8-11-11--10-9-----|

    B# B  A# A  G#
e|--8--7--6--5--4-|
B|--8--7--6--5--4-|
G|--9--8--7--6--5-|
D|-10--9--8--7--6-|
A|-10--9--8--7--6-|
E|--8--7--6--5--4-|

Bridge
    G     E     A#   A
e|-3-3---0-0---6-6--5-5-|
B|-3-3---0-0---6-6--5-5-|
G|-4-4---1-1---7-7--6-6-| x4
D|-5-5---2-2---8-8--7-7-|
A|-5-5---2-2---8-8--7-7-|
E|-3-3---0-0---6-6--5-5-|

Chorus
    G   A#   A  G#    G   A#  A G#
e|-3-3-6-6-5-5-4-4---3-3-6-6--5-4-|
B|-3-3-6-6-5-5-4-4---3-3-6-6--5-4-|
G|-4-4-7-7-6-6-5-5---4-4-7-7--6-5-|
D|-5-5-8-8-7-7-6-6---5-5-8-8--7-6-| x6
A|-5-5-8-8-7-7-6-6---5-5-8-8--7-6-|
E|-3-3-6-6-5-5-4-4---3-3-6-6--5-4-|


Lyrics:

Verse 1:
She said “I am Rosie” I said “I thought you were Lucy”
She said “No Rosie I told you so”
Was here with you sister but she was gone when I got back
I was up dancin for fun y’know
Of all the shitty little places I meet you it’s here
And now I’m freaking out
I heard you got a brand new name selling E’s in the dark
But hey it’s nothing to shout about

Bridge:
Don’t just say yes to tease me
Do your up most to please me
I don’t mean to be sleazy
Being you can’t be easy

Chorus:
When you’re creepin' up the backstairs
Mother’s nightmares
Falling in the front door, my, my
Climbing in the window
Get dressed let’s go
Take your brother’s car keys, bye, bye

Verse 2:
Well I see your yellow fingers and your crucifix bones
All covered in cellophane
Was there when yer best friend said “sweetheart”
I’m just here to get drunk again
I wouldn’t move if I was you
I wouldn’t want to get caught when the lights go out
She said “you think you’re so special” I said
“Sunshine I’m just bored I’m just checking out”

8.	Vince The Loveable Stoner


Vince The loveable Stoner
great song. sorry about the lyrics i know there all worng but i coped them off a lyric site

G
Now vince was a loner
a loveable stoner (aha)
he lived in a bluebird
spelled his name backwards (aha)
C
Hes so pretty
He always looks shitty (ahah)
G
born on a monday
such a very good day (aha)

chorus
D                             G                D     G    C
and i havent seen a pupil in his eyes for 16 days
D			 G		    D		G	   C
the catholic girls love him in a hundred million different ways
Bb
an hes been up for days
A
in a big malaise
N.C
hes only living till the salad days
G					Bb  C
rock a honey rock a honey woo hoo
C			Bb   A              G
sleeps all day and he dreams of you
G					Bb C
rock a honey rock a honey wee hee
C				Bb  A           G
dines in the city where the girls are free
G
shhhhhhhhhhhhhhh
G
now vince got a big crush
on the girl from redrush (aha)
took her out for tacos
said she liked burritos (aha)
C
and he said shes so easy
brought up in the country (aha)
G
she gets naked for a living
she aint afraid of giving (aha)

chorus (same as before)
and i havent seen a pupil in his eyes for 16 days
the catholic girls love him in a hundred million different ways
an hes been up for days
in a big malaise
hes only living till the salad days

rock a honey rock a honey woo hoo
sleeps all day and he dreams of you
rock a honey rock a honey wee hee
dines in the city where the girls are free

solo thing
e---------------   C Bb A G  e-10 11 12 11 12 10 11 12 11 10-|x2 C Bb A G
B------------------------------------------------------------|
G78989-78987 x2

chorus (same as before)
and i havent seen a pupil in his eyes for 16 days
the catholic girls love him in a hundred million different ways
an hes been up for days
in a big malaise
hes only living till the salad days

rock a honey rock a honey woo hoo
sleeps all day and he dreams of you
rock a honey rock a honey wee hee
died in the city where the girls are free

rock a honey rock a honey woo hoo
sleeps all day and he dreams of you
rock a honey rock a honey (wooooo hoooo)
                                  Bb     A     G  Bb   A    G
He don't touch tiity and he and a dont touch me a dont touch me

9.	Everybody Knows You Cried Last Night
Tuning: Standard

Intro:

e|------------------------|
B|------------------------|
G|------------------------|
D|------------------------|
A|----------10------------|
E|--6/8-8-8----8--10-8\5--|


Verse:

(Guitar 1)
e|------------------------|------------------|------------------------|
B|----------(x4)----------|-------(x2)-------|----------(x2)----------|
G|------------------------|------------------|------------------------|
D|------------------------|------------------|------------------------|
A|----------10------------|--------3---------|----------10------------|
E|--6/8-8-8----8--10-8\5--|--1-1-1---1--3-1--|--6/8-8-8----8--10-8\5--|

e|------------------|
B|-------(x2)-------|
G|------------------|
D|------------------|
A|--------2---------|
E|--0-0-0---0--2-0--|


(Guitar 2)
e|--------------|-------------|--------------|-------------|
B|------(x4)----|----(x2)-----|-----(x2)-----|----(x2)-----|
G|--------------|-------------|--------------|-------------|
D|--10-10---10--|--3--3----3--|--10-10---10--|--2--2----2--|
A|--10-10---10--|--3--3----3--|--10-10---10--|--2--2----2--|
E|--8--8----8---|--1--1----1--|--8--8----8---|--0--0----0--|


Chorus:

e|-------------------|
B|-------------------|
G|-------------------|
D|--7-7-6-6-5-5-4-4--| x4
A|--7-7-6-6-5-5-4-4--|
E|--5-5-4-4-3-3-2-2--|

e|------(x3)-----|--------------|------(x3)-----|-------------|
B|---------------|--------------|---------------|-------------|
G|----------5-5--|--7--7--7--7--|----------5-5--|-7--7--------|
D|--3--3-3--5-5--|--7--7--7--7--|--3--3-3--5-5--|-7--7--3--5--|
A|--3--3-3--3-3--|--5--5--5--5--|--3--3-3--3-3--|-5--5--3--5--|
E|--1--1-1-------|--------------|--1--1-1-------|-------1--3--|


Solo:

e|--------------------------------------------------------------|
B|--------------------------------------------------------------|
G|--------------------------------------------------------------|
D|---------------------8h9h10--------------8h10p8---------------|
A|--------------8-9-10----------------------------10-8h10p8-----|
E|--8-8-8-11-11----------------8-8-8-11-11------------------11--|

e|------------------------------------------------------------------|
B|------------------------------------------------------------------|
G|-----------------------------------------10h12p10----12p10--------|
D|---------------------8h9h10-----------------------12-------12-10--|
A|--------------8-9-10----------------------------------------------|
E|--8-8-8-11-11----------------8-8-8-11-11--------------------------|

e|--------------------------------------------------------------|
B|--------------------------------------------------------------|
G|--------------------------------------------------------------|
D|---------------------8h9h10--------------8h10p8---------------|
A|--------------8-9-10----------------------------10-8h10p8-----|
E|--8-8-8-11-11----------------8-8-8-11-11------------------11--|

e|------------------------------------------------------------------|
B|------------------------------------------------------------------|
G|-----------------------------------------10h12p10----12p10--------|
D|---------------------8h9h10-----------------------12-------12-10--|
A|--------------8-9-10----------------------------------------------|
E|--8-8-8-11-11----------------8-8-8-11-11--------------------------|

e|----------------------------------------------------------|
B|----------------------------------------------------------|
G|------------------------14----------14---14^----------14--|
D|--12^-10-12^-12^-10--12----12h14-12----------12h14-12-----|
A|----------------------------------------------------------|
E|----------------------------------------------------------|

e|----------------------------------------------------------|
B|----------------------------------------------------------|
G|--14-12----------14-12----------14-12-----14-12-----------|
D|--------15-14-12-------15-14-12-------15--------15-14-12--|
A|----------------------------------------------------------|
E|----------------------------------------------------------|

e|---------------------------------------------------------------------------|
B|---------------------------------------------------------------------------|
G|--8h10p8---------8-----------------------------------------8h10p8----8p6---|
D|---------11-10-8---11-10-8----8-----------------8----8-10--------10-----7--|
A|---------------------------10---10-8-------8-10---10-----------------------|
E|--------------------------------------8-11---------------------------------|

10.	Baby Fratelli

INTRO riff

e|---------------------10--10--10---------------------------|
B|---------------------10--10--10---------------------------|
G|---4----4--4--x-x-x--11--11--11---------------------------|
D|---5----5--5--x-x-x--12--12--12---------------------------|
A|---5----5--5--x-x-x--12--12--12---------------------------|
E|---3----3--3--x-x-x--10--10--10---------------------------|

Repeat riff until chorus


VERSE 1

D      G      D            G
I said oh my, I don't know why

D          G             D           G
I was just busy watching everyone go by

D           G          D            G
Outside the shite bar, and you're a red car

D           G                   D               G
Me and your girlfriend and your sister with the big scar

D         G       D          G
I said oh Christ, I told you twice

D             G                  D                G
It's just not easy going through all these things thrice

D             G       D           G
What's this I wonder, you drive a bluebird

D          G                     D           G
You got no money for the petrol, that's what I heard


CHORUS

         C                                  G
And it's alright, she'll be sucking fingers all night

G G#          D                                 G
Wearing those shoes, oh any excuse to go to the gang fight

             C                             G
And oh she's alright, everybody says she's uptight

G G#        D
Sick in the head, first in the bed so easy to be Friday's nightmare


Intro Riff


VERSE 2

D         G   D              G
I said oh no, oh please just go

D          G                 D             G
You got no eyelids and sweet Ella loves me so

D          G       D              G
She got my number, though I can't stand her

D            G                 D       G
I can't help diggin her a hope I guess I wonder

D           G      D           G
And oh it's clear, you want me dear

D           G         D           G
It would be easier if I was never here

D           G      D             G
You got the money, and I got the reason,

D           G                  D            G
I'll stick around with you for just another season

CHORUS

         C                                  G
And it's alright, she'll be sucking fingers all night

G G#          D                                 G
Wearing those shoes, oh any excuse to go to the gang fight

             C                             G
And oh she's alright, everybody says she's uptight

G G#        D
Sick in the head, first in the bed so easy to be Friday's nightmare


MIDDLE

C                   B
She's just getting along,

        Em
So don't tell me she's yours

          A
Oh please tell me I'm wrong again

e|-------------------------------------2--------------------------------|
B|-----------------1------------3-----------3-------3-------------------|
G|-------0----0--------------------2------------------------------------|
D|--------------------2--0----------------------------------------------|
A|----------2---3-------------------------------------------------------|
E|-----3----------------------------------------------------------------|
                        It's all in a day,


e|--------------------------------------2---3---------------------------|
B|-----------------1------------3--------------------3------------------|
G|-------0----0--------------------2------------------------------------|
D|--------------------2---0---------------------------------------------|
A|----------2---3-------------------------------------------------------|
E|-----3----------------------------------------------------------------|
                      So what can you say


e|-------------------------------------2--------------------------------|
B|-----------------1------------3-----------3---------------------------|
G|-------0----0--------------------2------------------------------------|
D|--------------------2--0----------------------------------------------|
A|----------2---3-------------------------------------------------------|
E|-----3----------------------------------------------------------------|
                    Just sleep in yer shoes


e|----------------------------------------------------------------------|
B|-----------------1------------3---------------------------------------|
G|-------0----0--------------------2------------------------------------|
D|--------------------2--0----------------------------------------------|
A|----------2---3-------------------------------------------------------|
E|-----3----------------------------------------------------------------|
                  With the windowbox blues


e|--------------7-----------------5-----10-----10-----------------------|
B|----------7---8-----------------5-----10-----10-----------------------|
G|-----9----7---9-----------------6-----11-----11-----------------------|
D|-----10---9---9-----------------7-----12-----10-----------------------|
A|-----10---9---7-----------------7-----12-----12-----------------------|
E|-----8----7---0-----------------5-----10-----10-----------------------|
   Any time you choose,        Oh yeah


Intro riff repeated


VERSE 3

D        G      D            G
She said oh my, I don't know why

D          G             D           G
I was just busy watching everyone go by

D           G          D            G
Outside the shite bar, and you're a red car

D           G                   D               G
Me and your girlfriend and your sister with the big scar


D           G       D          G
She said oh Christ, I told you twice

D             G                  D                G
It's just not easy going through all these things thrice

D             G       D           G
What's this I wonder, you drive a bluebird

D          G                     D            G
You got no money for the petrol, that's what I heard


CHORUS

         C                                  G
And it's alright, she'll be sucking fingers all night

G G#          D                                 G
Wearing those shoes, oh any excuse to go to the gang fight

             C                             G
And oh she's alright, everybody says she's uptight

G G#        D                                    D  C     B/G A  G
Sick in the head, first in the bed so easy to be Friday's wonder


11. Got Ma Nuts From A Hippy

The Fratellis – Got Ma Nuts From A Hippy

Em (x 7 9 9 8 7)
D   (x 5 7 7 7 5)
C   ( 8 10 10 9 8 8)
G   (3 5 5 4 3 3)
B    (7 9 9 8 7 7)
G5  (3 5 5 x x x)
E5  (0 2 2 x x x )
B5  (7 9 9 x x x )
D5 ( 5 7 7 x x x )
B5* (x 2 4 4 x x )
E5* (x 7 9 9 x x )

Intro : Em
Em                             D                     Em
Well I met her in a bar, the men with big guitars were playin
                                            Em                                D
                  Em
And I listened with my ears but I couldn’t hear what she was sayin
         C                        G
And I guess she talked with her mind
        D                       B
But didn’t want to seem to unkind so I just laughed
C                    G
And kept my eyes peeled to the door
D
Wondering what I was there for

Em

  G5                       E5
But it’s alright, it’s alright
   G5                      B5
It’s alright, it’s alright
        E5           G5          D5            B5*         E5*
I got my nuts from a hippy in a camper van on Saturday night

Same chords as previous verse- here are the lyrics

Well I asked if she believed in Adam and Eve the fable
And I guess she would’ve given me an answer if only she was able
And she danced like a medicine man
Drew a crazy picture on my hand and told me
She wanted to change my point of view
Asked me where I was going to


Em

  G5                       E5
But it’s alright, it’s alright
   G5                      B5
It’s alright, it’s alright
             E5              G5            D5                 B5*         E5*
I got my nuts from a hippy in a camper van on Saturday night

The riff for the following bit is this :

e----------------------------------------------------------------------------|
B----------------------------------------------------------------------------|
D----------------- 0---------------------------------------------------------|
A--------0-2-3-2----2-3-0-2---0----------------------------------------------|
E-0-2-3-----------------------3---2------------------------------------------|

then theres a solo.. which I haven’t worked out but the chords are: C, G, D, B, C, G ,D

then the instrumental bit is just Em, D, Em played as many times as you want. This is
by single strums of the following chords
             Em                           D
Well she whispered in my ear we got to get us out of
                 Em
here to the country


   Em                               D                      Em
I asked her for a ride she took me aside said “try me”
             C                                G
I thought I’m gonna wake pretty soon
         D                     B
In the middle of a Sunday afternoon just
C                     G                       D
dreamin, And it was warm in the back of her van

When she made me a real man

Em

               E5                           G5
She made me cry, she made me cry
               E5                           G5
She made me cry, she made me cry

  G5                       E5
But it’s alright, it’s alright
   G5                      B5
It’s alright, it’s alright
             E5              G5            D5                 B5*         E5*
I got my nuts from a hippy in a camper van on Saturday night
             E5              G5            D5                 B5*         E5*
I got my nuts from a hippy in a camper van on Saturday night
             E5              G5            D5                 B5*         E5*
I got my nuts from a hippy in a camper van on Saturday night
             E5              G5            D5                 B5*         E5*
I got my nuts from a hippy in a camper van on Saturday night

11.	Ole Black `n` Blue Eyes

intro:

e|-6--6--5--5--3--3--1--1--6--6--6--6--6--3--1-------|
B|-6--6--6--6--3--3--1--1--8--8--6--6--8--5--1-------|
G|-7--7--7--7--3--3--2--2--8--8--7--7--8--5--2-------|
D|-8--8--7--7--5--5--3--3--8--8--8--8--8--5--3-------|
A|-8--8--5--5--5--5--3--3--6--6--8--8--6--3--3-------|
E|-6--6--5--5--3--3--1--1--6--6--6--6--6--3--1-------|
   A#    Dm    Gm    F     Eb
   Eb C  F

verse: same chords

          A#           Dm           Gm
well she wants to be a singer in a band

            F               Eb         A#
maybe i'll give the girl a hand and a microphone

 Eb         C      F
looks like she's all alone...

etc

same chords for the chorus, then at the end:


			e|-6--6--6-6-6--6--6--8--8--8---6--6--6-6-6--6-|
			B|-6--6--8-8-8--6--6--10-10-10--6--6--7-7-7--6-|
			G|-7--7--8-8-8--7--7--10-10-10--7--7--8-8-8--7-|
			D|-8--8--8-8-8--8--8--10-10-10--8--8--8-8-8--8-|
			A|-8--8--6-6-6--8--8--8--8--8---8--8--6-6-6--8-|
			E|-6--6--6-6-6--6--6--8--8--8---6--6--6-6-6--6-|
			   A#    Eb     A#    F         A#
   A#

 when You're dealing with  me


for the 'young soul dagger...' bit:

  A#       Eb      A#           Eb
Young soul dagger, beggin me to bag her,

  A#              Eb      F
filthy heart and swollen hips....

thats about it, hope all is clear i just kind of knocked this together.
comments
print report bad tab
19 comments total. Showing first comments.
0 reply
Celtic-06- wrote on April 13 2007, 08:09 am

Well done much easier to view. A few mistakes here and there but that is understandable in a tab this big. Well done!

0 reply
TheWorks wrote on April 13 2007, 12:16 pm

You're missing two songs. Cuntry Boys & City Girls, and Ole Black 'n' Blue Eyes aren't there. Rest of it is good though

0 reply
bluemoon05 wrote on April 13 2007, 08:45 pm

Great tab well done

I want to post or [tab]
guest
You may want to rate the tab now too:
select rating
Please do not post tabs as comments. Select "correction" instead!