Oops, an error
Loading. Please wait.

Henrietta Tab

ver2
ver2

Whole song

Interactive

More versions @911Tabs.com
10,539 views 15 this week
11 commentsread comments
1 2 3 4 5
accurate
x 16
Autoscroll
+/-
esc
set tempo
stop
Contributor
Difficulty
intermediate
Hey! There's an official Ultimate Guitar app which is ideal
for learning songs when you're away from computer. Get the app
WARNING: You are trying to view
                                    content from Ultimate-Guitar.com
                                    in an unauthorized application,
                                    which is prohibited.

                                    Please use an official Ultimate
                                    Guitar Tabs application for iPhone,
                                    iPad or Android to access legitimate
                                    chords, guitar, bass, and drum tabs
                                    from Ultimate-Guitar.com database.

                                    Type "ultimate guitar tabs" in Apple
                                    App Store's or Android Market's
                                    search to find the application.
-------------------------------------------------------------------------------
                             HENRIETTA - The Fratellis
-------------------------------------------------------------------------------
Tabbed by:Jay Lee 
Email:JayLee1459@hotmail.com

Tuning: Standard E

Its bugging me how simple this song is to play and yet how there are 3 tabs up
so far that not only dont explain how to play it very well, but to be honest
arnt that good anyway, so here's my version, im 99% sure its perfect, lemme
                         know what ya think please!

Intro - its chords strummed down on the top 3 strings
        then up on the bottom 3 strings (same for verse)

    B

e|-----7----7----7----------7----7----7----------7---7---7-----------|-7-|---|
B|-----7----7----7----------7----7----7----------7---7---7-----------|-7-|---|
G|-----8----8----8----------8----8----8----------8---8---8-----------|-8-|-x9|
D|--9-----9----9----9-9-9-9----9----9----9-9-9-9---9---9---9-9-9-9---|-9-|---|
A|--9-----9----9----9-9-9-9----9----9----9-9-9-9---9---9---9-9-9-9---|-9-|---|
E|--7-----7----7----7-7-7-7----7----7----7-7-7-7---7---7---7-7-7-7---|-7-|---|

Verse - 

   "Henrietta we got no flowers for you, Just these three miserable c**ts, 
             Sitting on the back seat banging on the off beat"
                                   OR
 "Dear Henrietta we're just three lonely boys, Though the girls love us we're 
           so Into you incredibly we'd love to see you terribly"

    B                   G#                  F#                      D

e|----7---7---7-----------4---4---4-----------2---2---2-----------|-10-|-----|
B|----7---7---7-----------4---4---4-----------2---2---2-----------|-10-|-----|
G|----8---8---8-----------5---5---5-----------3---3---3-----------|-11-|-x8--|
D|--9---9---9---9-9-9-9\6---6---6---6-6-6-6\4---4---4---4-4-4-4---|-12-|-----|
A|--9---9---9---9-9-9-9\6---6---6---6-6-6-6\4---4---4---4-4-4-4---|-12-|-----|
E|--7---7---7---7-7-7-7\4---4---4---4-4-4-4\2---2---2---2-2-2-2---|-10-|-----|

 "We know you love us and you probably do, Although you're husband may cut us 
             He's such an animal though everything is possible "
                                    OR
 "We'd love to hate you but we don't have no choice, Come be our wa ha ha ha 
                Honey, honey three four one time once more"

    B                   G#                  F#                      D

e|----7---7---7-----------4---4---4-----------2---2---2-----------|-10-|-----|
B|----7---7---7-----------4---4---4-----------2---2---2-----------|-10-|-----|
G|----8---8---8-----------5---5---5-----------3---3---3-----------|-11-|-x8--|
D|--9---9---9---9-9-9-9\6---6---6---6-6-6-6\4---4---4---4-4-4-4---|-12-|-----|
A|--9---9---9---9-9-9-9\6---6---6---6-6-6-6\4---4---4---4-4-4-4---|-12-|-----|
E|--7---7---7---7-7-7-7\4---4---4---4-4-4-4\2---2---2---2-2-2-2---|-10-|-----|

Pre-Chorus - 

                 "Give us a kiss and maybe we can go out,
              It's hard to miss you when you follow us about"


    E         F#         B A# A G#   E         F#          B       G#

e|--0-0-#-0-0/2-2-#-2-2/--7-6-5-4----0-0-#-0-0/2-2-#-2-2/--7777777744444444--|
B|--0-0-#-0-0/2-2-#-2-2/--7-6-5-4----0-0-#-0-0/2-2-#-2-2/--7777777744444444--|
G|--1-1-#-1-1/3-3-#-3-3/--8-7-6-4----1-1-#-1-1/3-3-#-3-3/--8888888855555555--|
D|--2-2-#-2-2/4-4-#-4-4/--9-8-7-6----2-2-#-2-2/4-4-#-4-4/--9999999966666666--|
A|--2-2-#-2-2/4-4-#-4-4/--9-8-7-6----2-2-#-2-2/4-4-#-4-4/--9999999966666666--|
E|--0-0-#-0-0/2-2-#-2-2/--7-6-5-4----0-0-#-0-0/2-2-#-2-2/--7777777744444444--|

               
                "Buy us some shoes and maybe take us for cola 
               We'll get you there in some filthy big gondola"

    E         F#         B A# A G#   E         F#          B       G#

e|--0-0-#-0-0/2-2-#-2-2/--7-6-5-4----0-0-#-0-0/2-2-#-2-2/--7777777744444444--|
B|--0-0-#-0-0/2-2-#-2-2/--7-6-5-4----0-0-#-0-0/2-2-#-2-2/--7777777744444444--|
G|--1-1-#-1-1/3-3-#-3-3/--8-7-6-4----1-1-#-1-1/3-3-#-3-3/--8888888855555555--|
D|--2-2-#-2-2/4-4-#-4-4/--9-8-7-6----2-2-#-2-2/4-4-#-4-4/--9999999966666666--|
A|--2-2-#-2-2/4-4-#-4-4/--9-8-7-6----2-2-#-2-2/4-4-#-4-4/--9999999966666666--|
E|--0-0-#-0-0/2-2-#-2-2/--7-6-5-4----0-0-#-0-0/2-2-#-2-2/--7777777744444444--|

Chorus - 

                "Clean out the bank and bump off your daddy 
         You can come live with us among the has beens and the addicts 
               These are crazy times down at Costello music 
    You can answer the phone and talk nice anyway you choose it , come on"

    B     C#     E    G       F#

e|--7>----9->----0>---3-3-3-3-2-2-2-2----------------------------------------|
B|--7>----9->----0>---3-3-3-3-2-2-2-2----------------------------------------|
G|--8>----10>----1>---4-4-4-4-3-3-3-3-----repeat once------------------------|
D|--9>----11>----2>---5-5-5-5-4-4-4-4----------------------------------------|
A|--9>----11>----2>---5-5-5-5-4-4-4-4----------------------------------------|
E|--7>----9->----0>---3-3-3-3-2-2-2-2----------------------------------------|

Then same chords as:

Verse
Pre-Chorus
Chorus

Then For bridge, use the same chords for the verse, but with a pause for the
"wa wa wa waaaaa" bits obviously.

Pre-chorus
Chorus

Outro - 

                     "wah come on! wah come on!" etc

    B      A# A     G#      A A#           B      A# A   G#        G F#  D

e|--7-7-7-7-6-5--#--4-4-4-4-5-6-#----------7-7-7-7-6-5-#-4-4-4-4-4-3-2>--10>-|
B|--7-7-7-7-6-5--#--4-4-4-4-5-6-#----------7-7-7-7-6-5-#-4-4-4-4-4-3-2>--10>-|
G|--8-8-8-8-7-6--#--5-5-5-5-6-7-#--repeat--8-8-8-8-7-6-#-5-5-5-5-5-4-3>--11>-|
D|--9-9-9-9-8-7--#--6-6-6-6-7-8-#---once---9-9-9-9-8-7-#-6-6-6-6-6-5-4>--12>-|
A|--9-9-9-9-8-7--#--6-6-6-6-7-8-#---then---9-9-9-9-8-7-#-6-6-6-6-6-5-4>--12>-|
E|--7-7-7-7-6-5--#--4-4-4-4-5-6-#----------7-7-7-7-6-5-#-4-4-4-4-4-3-2>--10>-|


| #   hold strings
| >   continuous strumming
|p.m  palm mute
| /   slide up
| \   slide down
| h   hammer-on
| p   pull-off
| ~   vibrato
| +   harmonic
| x   Mute note

                 and you can all thank claire potter for this tab! 
                   cos she's the one who got me into fratellis!!
===============================================================================
comments
print report bad tab
11 comments total. Showing first comments.
0 reply
gavindavis wrote on December 12 2006, 07:36 am

great tab buddy sounds perfect

0 reply
Jarvillian wrote on December 24 2006, 09:08 am

Perfec'

0 reply
romone wrote on January 5 2007, 09:53 am

In stead of the D-chord on the 10th fret, i think the Hendrix-chord is used here: E7#9 (07678x).

I want to post or [tab]
guest
You may want to rate the tab now too:
select rating
Please do not post tabs as comments. Select "correction" instead!