Oops, an error
Loading. Please wait.

Milk And Money Bass Tab

296 views 1 this week
no commentswrite comment
1 2 3 4 5
please rate
add to favorites launch autoscroll
font size
0
reset
Autoscroll
+/-
esc
set tempo
stop
Contributor
Difficulty
intermediate
WARNING: You are trying to view
                                    content from Ultimate-Guitar.com
                                    in an unauthorized application,
                                    which is prohibited.

                                    Please use an official Ultimate
                                    Guitar Tabs application for iPhone,
                                    iPad or Android to access legitimate
                                    chords, guitar, bass, and drum tabs
                                    from Ultimate-Guitar.com database.

                                    Type "ultimate guitar tabs" in Apple
                                    App Store's or Android Market's
                                    search to find the application.
This is my first tab, so I apologize in any mistakes when writing the tab, 
Although I'm sure that the tablature itself is almost %100

The Bass comes in at the second Verse, at 1:21, after the Guitar solo.


  The Radio is silent            Except for wicked bands    
G|-------------------|          |--------------------------|                     
D|-------------------|          |--------------------------|                      
A|--3--------3-------|          |--3---------3-----------7-|                     
E|--------------5----|          |------------------5-------|   

   Soundin' like the Last one     Always in demand and now
G|-----------------------------|  |--------------------------|
D|--------------------5----5---|  |----------5-----5/--3-----|
A|-5----------5----------------|  |-5----5---------------5--|
E|-----------------------------|  |--------------------------|

   The city is off limits         To everyone in blue
G|------------------------|     |-----------------------|      
D|------------------------|     |-----------------------|
A|----3--------3----------|     |----3---------3------7-|  
E|----------------5-------|     |-----------------5-----|

   Nothing's gettin' in there      No one's gettin' through
G|----------------------------   |--------------------------|
D|-------------------5---5----   |----------5------5/--3----|
A|--5----------5--------------   |-5----5----------------5--|
E|----------------------------   |--------------------------|

  And it's no sup-rise                  When the last light dies
G|----------------|                    |-------------------------------|
D|----------------|                    |-------------------------------|
A|---------3--3--3|                    |----3/7\-3----3-----3--5--7--8/|
E|----------------|                    |-------------------------------|

  And the girl upon the wooden floor        Won't be dancein' anymore 
G|-------------------------------------|    |------------------------|
D|-------------------------------------|    |------------------------|
A|-------3--------------3--3-------3/--|    |8----------------8--8---|
E|-------------------------------------|    |------------------------|

  And where do they go      When the Thrills have gone?
G|----------------------|   |-----------------------------|
D|----------------------|   |-----------------------------|
A|/-3--3--3--3--3--3--3-|   |/--8--8--8--8--8--8--8--8--8-|
E|----------------------|   |-----------------------------|

  The last song plays   down at Babylon               Five Hundred kids shout 
G|----------------------------------------------|    |----------------------|
D|----------------------------------------------|    |----------------------|
A|\3--3--3--3--3--3--3--8--8--8--8--8--8--8--8--|    |3--3--3--3--3--3--3--3|
E|----------------------------------------------|    |----------------------|

  What's the deal?               It's a very confusing way to feel..
G|---------------------------|  |------------------------------------------|
D|---------------------------|  |------------------------------------------|
A|--8--8--8--8--8--8--8--8--8|  |--3--3--3--3--3--3--3--------------7\3/10-|
E|---------------------------|  |------------------------------------------|

Let that last note play for a while, then mute it before the piano break


Up until now the bassist is using his fingers, you switch to a pick from here  onward

Piano Break, follow the Drum's rhythm for this part..Bass comes in At 2:28

G|----------------------------------------------------------|
D|----------------------------------------------------------|
A|----------------------------------------------------------|
E|--5--5--5--5--5--5--5--3--1--1--1--1--1/3-0--0--0--3333---|

Now just copy the piano for the remainder of the song

G|---------------------------------------------------------------|
D|---------------------------------------------------------------|
A|---------------------------------------------------------------|
E|5-5-5-3-5-5-5-3-5-5-3-5~-5/10\-1-1-1-1-1-1-1-1-0-0-1-0-0--3333-|

So yeah, thats it.A few mistakes but it'll get you by almost perfectly

Just continue that, it's easy to hear so just fiddle around with the notes until 
you get it sounding right. I hope this was of use to some of you. 

Bye bye!
comments
We did not receive enough feedback on this tab! Please rate:
print report bad tab
1 2 3 4 5
I want to post or [tab]
guest
You may want to rate the tab now too:
select rating
Please do not post tabs as comments. Select "correction" instead!