Oops, an error
Loading. Please wait.

How To Save A Life Tab

ver5
ver5
More versions @911Tabs.com
49,664 views 24 this week
2 commentsread comments
1 2 3 4 5
accurate
x 3
Autoscroll
+/-
esc
set tempo
stop
Contributor
WARNING: You are trying to view
                                    content from Ultimate-Guitar.com
                                    in an unauthorized application,
                                    which is prohibited.

                                    Please use an official Ultimate
                                    Guitar Tabs application for iPhone,
                                    iPad or Android to access legitimate
                                    chords, guitar, bass, and drum tabs
                                    from Ultimate-Guitar.com database.

                                    Type "ultimate guitar tabs" in Apple
                                    App Store's or Android Market's
                                    search to find the application.
How To Save A Life                    The Fray

Gtr I (D A D G B E) - 'Untitled'
Gtr II (D A D G B E) - 'Untitled'
Gtr III (E A D G B E) - 'Untitled'


    Q=122
    Gtr I
     E  E  E  Q   E  E  E    E  E  E  Q   E  E  E
||------------------------|-----------------------|
||o-----------------------|-----------------------|
||-----10----10--10----10-|----10----10--10----10-|
||--------12--------12----|-------12--------12----|
||o-13--------------------|-12--------------------|
||------------------------|-----------------------|
|
|   Gtr II
|    W                       W
||------------------------|-----------------------|
||o-11--------------------|-13--------------------|
||------------------------|-----------------------|
||------------------------|-----------------------|
||o-----------------------|-----------------------|
||------------------------|-----------------------|


   E  E  E  Q   E  E  E    E  E  E  E  E  E  E  E   5x
|-----------------------|---------------------------||
|-----------------------|--------------------------o||
|----10----10--10----10-|----10----10----10----10---||
|-------12--------12----|-------12----10----12------||
|-13--------------------|-12-----------------------o||
|-----------------------|---------------------------||
|
|  W                       H           H            5x
|-10--------------------|---------------------------||
|-----------------------|-10----------13-----------o||
|-----------------------|---------------------------||
|-----------------------|---------------------------||
|-----------------------|--------------------------o||
|-----------------------|---------------------------||


     Q    Q    Q    Q      Q    Q    Q    Q
||----------------------|---------------------|
||o-11---15---11---15---|-13---15---13---15---|
||----------------------|-14------------------|
||--17------------------|-15------------------|
||o-18------------------|---------------------|
||----------------------|---------------------|
|
|    Q.     Q    Q    E    Q.     Q    Q    E
||----------------------|---------------------|
||o---------------------|---------------------|
||----------------------|---------------------|
||----------------------|---------------------|
||o--6------6----6----6-|--8------8----8----8-|
||---1------1----1----1-|--3------3----3----3-|
|
|   Gtr III
|    W                     W
||----------------------|---------------------|
||o-^8------------------|---------------------|
||--^8------------------|-^2------------------|
||--^8------------------|-^3------------------|
||o-^6------------------|-^3------------------|
||----------------------|-^1------------------|


   Q    Q     Q     Q       Q    Q     Q    Q
|------------------------|-------------------------||
|-15---15----11----15----|------15----13---18-----o||
|-15---------------------|-19---------14-----------||
|-17---------------------|-15---------15-----------||
|------------------------|-17---------------------o||
|------------------------|-------------------------||
|
|  Q.      Q     Q     E    Q.      E  Q.      E
|------------------------|-------------------------||
|------------------------|------------------------o||
|------------------------|-------------------------||
|------------------------|-------------------------||
|-10------10----10----10-|-13------13-12------12--o||
|--5-------5-----5-----5-|--8-------8--7-------7---||
|
|  W                        H          H
|------------------------|-------------------------||
|------------------------|-^3---------------------o||
|-^3---------------------|-^3---------^2-----------||
|-^5---------------------|-^3---------^3-----------||
|-^5---------------------|-^1---------^3----------o||
|-^3---------------------|------------^1-----------||


   E  E  E  Q    E  E  E    E  E  E   Q       E   E  E
|------------------------|-----------------------------|
|------------------------|-----------------------------|
|----10----10---10----10-|----10-----10------10-----10-|
|-------12---------12----|-------12--------------12----|
|-13---------------------|-12--------------------------|
|------------------------|-----------------------------|
|
|  W                        W
|------------------------|-----------------------------|
|-11---------------------|-13--------------------------|
|------------------------|-----------------------------|
|------------------------|-----------------------------|
|------------------------|-----------------------------|
|------------------------|-----------------------------|
|
| Gtr III
|  Q     Q    Q     Q       Q     E   E   E   E   Q
|------------------------|-----------------------------|
|------------------------|-----------------------------|
|--------0---------------|-----------------------------|
|-------------3-----1----|--0----(1)-(3)-(1)-(3)--0----|
|------------------------|-----------------------------|
|------------------------|-----------------------------|


   E  E  E  Q    E  E  E    E   E  E  E  E  E  E  E
|------------------------|--------------------------|
|------------------------|--------------------------|
|----10----10---10----10-|-----10----10----10----10-|
|-------12---------12----|--------12----10----12----|
|-13---------------------|-12-----------------------|
|------------------------|--------------------------|
|
|  W                        H            H
|-10---------------------|--------------------------|
|------------------------|-10-----------13----------|
|------------------------|--------------------------|
|------------------------|--------------------------|
|------------------------|--------------------------|
|------------------------|--------------------------|
|
|  Q     Q    Q     Q      +W
|------------------------|--------------------------|
|------------------------|--------------------------|
|------------------------|--------------------------|
|--------0----3----------|--------------------------|
|-------------------1----|-(1)----------------------|
|------------------------|--------------------------|


     E  E  E  Q   E  E  E    E  E  E  Q   E  E  E
||------------------------|-----------------------|
||o-----------------------|-----------------------|
||-----10----10--10----10-|----10----10--10----10-|
||--------12--------12----|-------12--------12----|
||o-13--------------------|-12--------------------|
||------------------------|-----------------------|
|
|    W                       W
||------------------------|-----------------------|
||o-11--------------------|-13--------------------|
||------------------------|-----------------------|
||------------------------|-----------------------|
||o-----------------------|-----------------------|
||------------------------|-----------------------|


   E  E  E  Q   E  E  E    E  E  E  E  E  E  E  E
|-----------------------|---------------------------||
|-----------------------|--------------------------o||
|----10----10--10----10-|----10----10----10----10---||
|-------12--------12----|-------12----10----12------||
|-13--------------------|-12-----------------------o||
|-----------------------|---------------------------||
|
|  W                       H           H
|-10--------------------|---------------------------||
|-----------------------|-10----------13-----------o||
|-----------------------|---------------------------||
|-----------------------|---------------------------||
|-----------------------|--------------------------o||
|-----------------------|---------------------------||


   E  E  E  Q    E  E  E    E  E  E  Q   E  E  E
|------------------------|-----------------------|
|------------------------|-----------------------|
|----10----10---10----10-|----10----10--10----10-|
|-------12---------12----|-------12--------12----|
|-13---------------------|-12--------------------|
|------------------------|-----------------------|
|
|  W                        W
|------------------------|-----------------------|
|-11---------------------|-13--------------------|
|------------------------|-----------------------|
|------------------------|-----------------------|
|------------------------|-----------------------|
|------------------------|-----------------------|
|
|  Q     Q    Q     Q       W
|------------------------|-----------------------|
|------------------------|-----------------------|
|--------0---------------|-----------------------|
|-------------3-----1----|--0--------------------|
|------------------------|-----------------------|
|------------------------|-----------------------|


   E  E  E  Q   E  E  E    E  E  E  E  E  E  E  E
|-----------------------|-------------------------|
|-----------------------|-------------------------|
|----10----10--10----10-|----10----10----10----10-|
|-------12--------12----|-------12----10----12----|
|-13--------------------|-12----------------------|
|-----------------------|-------------------------|
|
|  W                       H           H
|-10--------------------|-------------------------|
|-----------------------|-10----------13----------|
|-----------------------|-------------------------|
|-----------------------|-------------------------|
|-----------------------|-------------------------|
|-----------------------|-------------------------|
|
|-----------------------|-------------------------|
|-----------------------|-------------------------|
|-----------------------|-------------------------|
|-----------------------|-------------------------|
|-----------------------|-------------------------|
|-----------------------|-------------------------|


   E  E  E  Q     E  E  E    E  E  E  Q     E  E  E
|-------------------------|-------------------------|
|-------------------------|-------------------------|
|----10----10----10----10-|----10----10----10----10-|
|-------12----------12----|-------12----------12----|
|-13----------------------|-12----------------------|
|-------------------------|-------------------------|
|
|  Q     Q     Q     Q       Q     Q     Q     Q
|-------13----13----13----|-13----------------------|
|-11----------------------|-------13----16----15----|
|-------------------------|-------------------------|
|-------------------------|-------------------------|
|-------------------------|-------------------------|
|-------------------------|-------------------------|
|
|  Q     Q     Q     Q       W
|-------------------------|-------------------------|
|-------------------------|-------------------------|
|--------0----------------|-------------------------|
|--------------3-----1----|--0----------------------|
|-------------------------|-------------------------|
|-------------------------|-------------------------|


   E  E  E  Q     E  E  E    E  E  E  E  E  E  E  E
|-------------------------|-------------------------|
|-------------------------|-------------------------|
|----10----10----10----10-|----10----10----10----10-|
|-------12----------12----|-------12----10----12----|
|-13----------------------|-12----------------------|
|-------------------------|-------------------------|
|
|  Q     Q     Q     Q       Q     Q     Q     Q
|-------13----13----13----|-13----------------------|
|-11----------------------|-------13----16----15----|
|-------------------------|-------------------------|
|-------------------------|-------------------------|
|-------------------------|-------------------------|
|-------------------------|-------------------------|
|
|-------------------------|-------------------------|
|-------------------------|-------------------------|
|-------------------------|-------------------------|
|-------------------------|-------------------------|
|-------------------------|-------------------------|
|-------------------------|-------------------------|


     Q    Q    Q    Q      Q    Q    Q    Q
||----------------------|---------------------|
||o-11---15---11---15---|-13---15---13---15---|
||----------------------|-14------------------|
||--17------------------|-15------------------|
||o-18------------------|---------------------|
||----------------------|---------------------|
|
|    Q.     Q    Q    E    Q.     Q    Q    E
||----------------------|---------------------|
||o---------------------|---------------------|
||----------------------|---------------------|
||----------------------|---------------------|
||o--6------6----6----6-|--8------8----8----8-|
||---1------1----1----1-|--3------3----3----3-|
|
|    W                     W
||----------------------|---------------------|
||o-^8------------------|---------------------|
||--^8------------------|-^2------------------|
||--^8------------------|-^3------------------|
||o-^6------------------|-^3------------------|
||----------------------|-^1------------------|


   Q    Q     Q     Q       Q    Q     Q    Q
|------------------------|-------------------------||
|-15---15----11----15----|------15----13---18-----o||
|-15---------------------|-19---------14-----------||
|-17---------------------|-15---------15-----------||
|------------------------|-17---------------------o||
|------------------------|-------------------------||
|
|  Q.      Q     Q     E    Q.      E  Q.      E
|------------------------|-------------------------||
|------------------------|------------------------o||
|------------------------|-------------------------||
|------------------------|-------------------------||
|-10------10----10----10-|-13------13-12------12--o||
|--5-------5-----5-----5-|--8-------8--7-------7---||
|
|  W                        H          H
|------------------------|-------------------------||
|------------------------|-^3---------------------o||
|-^3---------------------|-^3---------^2-----------||
|-^5---------------------|-^3---------^3-----------||
|-^5---------------------|-^1---------^3----------o||
|-^3---------------------|------------^1-----------||


   E  E  E  Q    E  E  E    E  E  E   Q       E   E  E
|------------------------|-----------------------------|
|------------------------|-----------------------------|
|----10----10---10----10-|----10-----10------10-----10-|
|-------12---------12----|-------12--------------12----|
|-13---------------------|-12--------------------------|
|------------------------|-----------------------------|
|
|  W                        W
|------------------------|-----------------------------|
|-11---------------------|-13--------------------------|
|------------------------|-----------------------------|
|------------------------|-----------------------------|
|------------------------|-----------------------------|
|------------------------|-----------------------------|
|
|  Q     Q    Q     Q       Q     E   E   E   E   Q
|------------------------|-----------------------------|
|------------------------|-----------------------------|
|--------0---------------|-----------------------------|
|-------------3-----1----|--0----(1)-(3)-(1)-(3)--0----|
|------------------------|-----------------------------|
|------------------------|-----------------------------|


   E  E  E  Q    E  E  E    E   E  E  E  E  E  E  E
|------------------------|--------------------------|
|------------------------|--------------------------|
|----10----10---10----10-|-----10----10----10----10-|
|-------12---------12----|--------12----10----12----|
|-13---------------------|-12-----------------------|
|------------------------|--------------------------|
|
|  W                        H            H
|-10---------------------|--------------------------|
|------------------------|-10-----------13----------|
|------------------------|--------------------------|
|------------------------|--------------------------|
|------------------------|--------------------------|
|------------------------|--------------------------|
|
|  Q     Q    Q     Q      +W
|------------------------|--------------------------|
|------------------------|--------------------------|
|------------------------|--------------------------|
|--------0----3----------|--------------------------|
|-------------------1----|-(1)----------------------|
|------------------------|--------------------------|


     E  E  E  Q   E  E  E    E  E  E  Q   E  E  E
||------------------------|-----------------------|
||o-----------------------|-----------------------|
||-----10----10--10----10-|----10----10--10----10-|
||--------12--------12----|-------12--------12----|
||o-13--------------------|-12--------------------|
||------------------------|-----------------------|
|
|    W                       W
||------------------------|-----------------------|
||o-11--------------------|-13--------------------|
||------------------------|-----------------------|
||------------------------|-----------------------|
||o-----------------------|-----------------------|
||------------------------|-----------------------|


   E  E  E  Q   E  E  E    E  E  E  E  E  E  E  E
|-----------------------|---------------------------||
|-----------------------|--------------------------o||
|----10----10--10----10-|----10----10----10----10---||
|-------12--------12----|-------12----10----12------||
|-13--------------------|-12-----------------------o||
|-----------------------|---------------------------||
|
|  W                       H           H
|-10--------------------|---------------------------||
|-----------------------|-10----------13-----------o||
|-----------------------|---------------------------||
|-----------------------|---------------------------||
|-----------------------|--------------------------o||
|-----------------------|---------------------------||


   E  E  E  Q    E  E  E    E  E  E  Q   E  E  E
|------------------------|-----------------------|
|------------------------|-----------------------|
|----10----10---10----10-|----10----10--10----10-|
|-------12---------12----|-------12--------12----|
|-13---------------------|-12--------------------|
|------------------------|-----------------------|
|
|  W                        W
|------------------------|-----------------------|
|-11---------------------|-13--------------------|
|------------------------|-----------------------|
|------------------------|-----------------------|
|------------------------|-----------------------|
|------------------------|-----------------------|
|
|  Q     Q    Q     Q       W
|------------------------|-----------------------|
|------------------------|-----------------------|
|--------0---------------|-----------------------|
|-------------3-----1----|--0--------------------|
|------------------------|-----------------------|
|------------------------|-----------------------|


   E  E  E  Q   E  E  E    E  E  E  E  E  E  E  E
|-----------------------|-------------------------|
|-----------------------|-------------------------|
|----10----10--10----10-|----10----10----10----10-|
|-------12--------12----|-------12----10----12----|
|-13--------------------|-12----------------------|
|-----------------------|-------------------------|
|
|  W                       H           H
|-10--------------------|-------------------------|
|-----------------------|-10----------13----------|
|-----------------------|-------------------------|
|-----------------------|-------------------------|
|-----------------------|-------------------------|
|-----------------------|-------------------------|
|
|-----------------------|-------------------------|
|-----------------------|-------------------------|
|-----------------------|-------------------------|
|-----------------------|-------------------------|
|-----------------------|-------------------------|
|-----------------------|-------------------------|


   E  E  E  Q     E  E  E    E  E  E  Q     E  E  E
|-------------------------|-------------------------|
|-------------------------|-------------------------|
|----10----10----10----10-|----10----10----10----10-|
|-------12----------12----|-------12----------12----|
|-13----------------------|-12----------------------|
|-------------------------|-------------------------|
|
|  Q     Q     Q     Q       Q     Q     Q     Q
|-------13----13----13----|-13----------------------|
|-11----------------------|-------13----16----15----|
|-------------------------|-------------------------|
|-------------------------|-------------------------|
|-------------------------|-------------------------|
|-------------------------|-------------------------|
|
|  Q     Q     Q     Q       W
|-------------------------|-------------------------|
|-------------------------|-------------------------|
|--------0----------------|-------------------------|
|--------------3-----1----|--0----------------------|
|-------------------------|-------------------------|
|-------------------------|-------------------------|


   E  E  E  Q     E  E  E    E  E  E  E  E  E  E  E
|-------------------------|-------------------------|
|-------------------------|-------------------------|
|----10----10----10----10-|----10----10----10----10-|
|-------12----------12----|-------12----10----12----|
|-13----------------------|-12----------------------|
|-------------------------|-------------------------|
|
|  Q     Q     Q     Q       Q     Q     Q     Q
|-------13----13----13----|-13----------------------|
|-11----------------------|-------13----16----15----|
|-------------------------|-------------------------|
|-------------------------|-------------------------|
|-------------------------|-------------------------|
|-------------------------|-------------------------|
|
|-------------------------|-------------------------|
|-------------------------|-------------------------|
|-------------------------|-------------------------|
|-------------------------|-------------------------|
|-------------------------|-------------------------|
|-------------------------|-------------------------|


     Q    Q    Q    Q      Q    Q    Q    Q
||----------------------|---------------------|
||o-11---15---11---15---|-13---15---13---15---|
||----------------------|-14------------------|
||--17------------------|-15------------------|
||o-18------------------|---------------------|
||----------------------|---------------------|
|
|    Q.     Q    Q    E    Q.     Q    Q    E
||----------------------|---------------------|
||o---------------------|---------------------|
||----------------------|---------------------|
||----------------------|---------------------|
||o--6------6----6----6-|--8------8----8----8-|
||---1------1----1----1-|--3------3----3----3-|
|
|    W                     W
||----------------------|---------------------|
||o-^8------------------|---------------------|
||--^8------------------|-^2------------------|
||--^8------------------|-^3------------------|
||o-^6------------------|-^3------------------|
||----------------------|-^1------------------|


   Q    Q     Q     Q       Q    Q     Q    Q      4x
|------------------------|-------------------------||
|-15---15----11----15----|------15----13---18-----o||
|-15---------------------|-19---------14-----------||
|-17---------------------|-15---------15-----------||
|------------------------|-17---------------------o||
|------------------------|-------------------------||
|
|  Q.      Q     Q     E    Q.      E  Q.      E   4x
|------------------------|-------------------------||
|------------------------|------------------------o||
|------------------------|-------------------------||
|------------------------|-------------------------||
|-10------10----10----10-|-13------13-12------12--o||
|--5-------5-----5-----5-|--8-------8--7-------7---||
|
|  W                        H          H           4x
|------------------------|-------------------------||
|------------------------|-^3---------------------o||
|-^3---------------------|-^3---------^2-----------||
|-^5---------------------|-^3---------^3-----------||
|-^5---------------------|-^1---------^3----------o||
|-^3---------------------|------------^1-----------||


   E  E  E  Q   E  E  E    E  E  E  Q   E  E  E
|-----------------------|-----------------------|
|-----------------------|-----------------------|
|----10----10--10----10-|----10----10--10----10-|
|-------12--------12----|-------12--------12----|
|-13--------------------|-12--------------------|
|-----------------------|-----------------------|
|
|  W                       W
|-----------------------|-----------------------|
|-11--------------------|-13--------------------|
|-----------------------|-----------------------|
|-----------------------|-----------------------|
|-----------------------|-----------------------|
|-----------------------|-----------------------|


   E  E  E  Q   E  E  E    E  E  E  E  E  E  E  E
|-----------------------|-------------------------|
|-----------------------|-------------------------|
|----10----10--10----10-|----10----10----10----10-|
|-------12--------12----|-------12----10----12----|
|-13--------------------|-12----------------------|
|-----------------------|-------------------------|
|
|  W                       H           H
|-10--------------------|-------------------------|
|-----------------------|-10----------13----------|
|-----------------------|-------------------------|
|-----------------------|-------------------------|
|-----------------------|-------------------------|
|-----------------------|-------------------------|


   E  E  E  Q     E  E  E    E  E  E  Q     E  E  E
|-------------------------|-------------------------|
|-------------------------|-------------------------|
|----10----10----10----10-|----10----10----10----10-|
|-------12----------12----|-------12----------12----|
|-13----------------------|-12----------------------|
|-------------------------|-------------------------|
|
|  Q     Q     Q     Q       Q     Q     Q     Q
|-------13----13----13----|-13----------------------|
|-11----------------------|-------13----16----15----|
|-------------------------|-------------------------|
|-------------------------|-------------------------|
|-------------------------|-------------------------|
|-------------------------|-------------------------|


   E  E  E  Q     E  E  E    E  E  E  E  E  E  E  E
|-------------------------|-------------------------|
|-------------------------|-------------------------|
|----10----10----10----10-|----10----10----10----10-|
|-------12----------12----|-------12----10----12----|
|-13----------------------|-12----------------------|
|-------------------------|-------------------------|
|
|  Q     Q     Q     Q       Q     Q     Q     Q
|-------13----13----13----|-13----------------------|
|-11----------------------|-------13----16----15----|
|-------------------------|-------------------------|
|-------------------------|-------------------------|
|-------------------------|-------------------------|
|-------------------------|-------------------------|


     Q    Q    Q    Q      Q    Q    Q    Q
||----------------------|---------------------|
||o-11---15---11---15---|-13---15---13---15---|
||----------------------|-14------------------|
||--17------------------|-15------------------|
||o-18------------------|---------------------|
||----------------------|---------------------|
|
|    Q.     Q    Q    E    Q.     Q    Q    E
||----------------------|---------------------|
||o---------------------|---------------------|
||----------------------|---------------------|
||----------------------|---------------------|
||o--6------6----6----6-|--8------8----8----8-|
||---1------1----1----1-|--3------3----3----3-|
|
|    W                     W
||----------------------|---------------------|
||o-^8------------------|---------------------|
||--^8------------------|-^2------------------|
||--^8------------------|-^3------------------|
||o-^6------------------|-^3------------------|
||----------------------|-^1------------------|


   Q    Q     Q     Q       Q    Q     Q    Q      4x
|------------------------|-------------------------||
|-15---15----11----15----|------15----13---18-----o||
|-15---------------------|-19---------14-----------||
|-17---------------------|-15---------15-----------||
|------------------------|-17---------------------o||
|------------------------|-------------------------||
|
|  Q.      Q     Q     E    Q.      E  Q.      E   4x
|------------------------|-------------------------||
|------------------------|------------------------o||
|------------------------|-------------------------||
|------------------------|-------------------------||
|-10------10----10----10-|-13------13-12------12--o||
|--5-------5-----5-----5-|--8-------8--7-------7---||
|
|  W                        H          H           4x
|------------------------|-------------------------||
|------------------------|-^3---------------------o||
|-^3---------------------|-^3---------^2-----------||
|-^5---------------------|-^3---------^3-----------||
|-^5---------------------|-^1---------^3----------o||
|-^3---------------------|------------^1-----------||


   E  E  E  Q    E  E  E    E  E  E   Q       E   E  E
|------------------------|-----------------------------|
|------------------------|-----------------------------|
|----10----10---10----10-|----10-----10------10-----10-|
|-------12---------12----|-------12--------------12----|
|-13---------------------|-12--------------------------|
|------------------------|-----------------------------|
|
|  W                        W
|------------------------|-----------------------------|
|-11---------------------|-13--------------------------|
|------------------------|-----------------------------|
|------------------------|-----------------------------|
|------------------------|-----------------------------|
|------------------------|-----------------------------|
|
|  Q     Q    Q     Q       Q     E   E   E   E   Q
|------------------------|-----------------------------|
|------------------------|-----------------------------|
|--------0---------------|-----------------------------|
|-------------3-----1----|--0----(1)-(3)-(1)-(3)--0----|
|------------------------|-----------------------------|
|------------------------|-----------------------------|


   E  E  E  Q    E  E  E    E   E  E  E  E  E  E  E
|------------------------|--------------------------|
|------------------------|--------------------------|
|----10----10---10----10-|-----10----10----10----10-|
|-------12---------12----|--------12----10----12----|
|-13---------------------|-12-----------------------|
|------------------------|--------------------------|
|
|  W                        H            H
|-10---------------------|--------------------------|
|------------------------|-10-----------13----------|
|------------------------|--------------------------|
|------------------------|--------------------------|
|------------------------|--------------------------|
|------------------------|--------------------------|
|
|  Q     Q    Q     Q      +W
|------------------------|--------------------------|
|------------------------|--------------------------|
|------------------------|--------------------------|
|--------0----3----------|--------------------------|
|-------------------1----|-(1)----------------------|
|------------------------|--------------------------|


   E  E  E  Q     E  E  E    E  E  E   Q       E   E  E
|-------------------------|-----------------------------|
|-------------------------|-----------------------------|
|----10----10----10----10-|----10-----10------10-----10-|
|-------12----------12----|-------12--------------12----|
|-13----------------------|-12--------------------------|
|-------------------------|-----------------------------|
|
|  Q     Q     Q     Q       Q     Q       Q       Q
|-------13----13----13----|-13--------------------------|
|-11----------------------|-------13------16------15----|
|-------------------------|-----------------------------|
|-------------------------|-----------------------------|
|-------------------------|-----------------------------|
|-------------------------|-----------------------------|
|
|  Q     Q     Q     Q       Q     E   E   E   E   Q
|-------------------------|-----------------------------|
|-------------------------|-----------------------------|
|--------0----------------|-----------------------------|
|--------------3-----1----|--0----(1)-(3)-(1)-(3)--0----|
|-------------------------|-----------------------------|
|-------------------------|-----------------------------|


   E  E  E  Q     E  E  E    E   E  E  E  E  E  E  E
|-------------------------|--------------------------|
|-------------------------|--------------------------|
|----10----10----10----10-|-----10----10----10----10-|
|-------12----------12----|--------12----10----12----|
|-13----------------------|-12-----------------------|
|-------------------------|--------------------------|
|
|  Q     Q     Q     Q       Q      Q     Q     Q
|-------13----13----13----|-13-----------------------|
|-11----------------------|--------13----16----15----|
|-------------------------|--------------------------|
|-------------------------|--------------------------|
|-------------------------|--------------------------|
|-------------------------|--------------------------|
|
|  Q     Q     Q     Q      +W
|-------------------------|--------------------------|
|-------------------------|--------------------------|
|-------------------------|--------------------------|
|--------0-----3----------|--------------------------|
|--------------------1----|-(1)----------------------|
|-------------------------|--------------------------|


   E  E  E  Q   E  E  E    E  E  E  Q   E  E  E
|-----------------------|-----------------------|
|-----------------------|-----------------------|
|----10----10--10----10-|----10----10--10----10-|
|-------12--------12----|-------12--------12----|
|-13--------------------|-12--------------------|
|-----------------------|-----------------------|
|
|  W                       W
|-----------------------|-----------------------|
|-11--------------------|-13--------------------|
|-----------------------|-----------------------|
|-----------------------|-----------------------|
|-----------------------|-----------------------|
|-----------------------|-----------------------|


   E  E  E  Q   E  E  E    E  E  E  E  E  E  E  E
|-----------------------|-------------------------|
|-----------------------|-------------------------|
|----10----10--10----10-|----10----10----10----10-|
|-------12--------12----|-------12----10----12----|
|-13--------------------|-12----------------------|
|-----------------------|-------------------------|
|
|  W                       H           H
|-10--------------------|-------------------------|
|-----------------------|-10----------13----------|
|-----------------------|-------------------------|
|-----------------------|-------------------------|
|-----------------------|-------------------------|
|-----------------------|-------------------------|


   W           +W            +W            +W
|-----------|-------------|-------------|---------|
|-----------|-------------|-------------|---------|
|-----------|-------------|-------------|---------|
|-----------|-------------|-------------|---------|
|-13--------|-(13)--------|-(13)--------|-(13)----|
|-----------|-------------|-------------|---------|
|
|  W           +W            +W            +W
|-----------|-------------|-------------|---------|
|-11--------|-(11)--------|-(11)--------|-(11)----|
|-----------|-------------|-------------|---------|
|-----------|-------------|-------------|---------|
|-----------|-------------|-------------|---------|
|-----------|-------------|-------------|---------|

comments
We did not receive enough feedback on this tab! Please rate:
1 2 3 4 5
2 comments total.
0 reply
jdrk10 wrote on February 13 2009, 08:43 pm

uhh...this is all piano, so what was the point?? and could u put a lyrics key?? the guitar only shows up only in the chorus, and just plays chords...

0 reply
wtflolbbq wrote on June 16 2009, 04:42 pm

lol @ the 17 18 11 chord

I want to post or [tab]
guest
You may want to rate the tab now too:
select rating
Please do not post tabs as comments. Select "correction" instead!