Oops, an error
Loading. Please wait.

Over My Head Cable Car Bass Tab

ver2
ver2

Whole song

More versions @911Tabs.com
4,510 views 9 this week
no commentswrite comment
1 2 3 4 5
excellent!
x 3
Autoscroll
+/-
esc
set tempo
stop
Contributor
WARNING: You are trying to view
                                    content from Ultimate-Guitar.com
                                    in an unauthorized application,
                                    which is prohibited.

                                    Please use an official Ultimate
                                    Guitar Tabs application for iPhone,
                                    iPad or Android to access legitimate
                                    chords, guitar, bass, and drum tabs
                                    from Ultimate-Guitar.com database.

                                    Type "ultimate guitar tabs" in Apple
                                    App Store's or Android Market's
                                    search to find the application.
-------------------------------------------------------------------------------
			     Over My Head (Cable Car) – The Fray
-------------------------------------------------------------------------------

Tabbed By :Ledzepjpj
e-mail:

Tuning:standard

Come in right after “its gotta be”
G|------------------------------------------------------------------------------|
D|---66----------------------------8/10-1010------------------------------------|
A|444-—446-888------444--446-888------------444--446-888------------------------|
E|-------------88888----44----------------------44-------88884-6666-4444--------|

G|--------------|
D|-----6p5-5----|
A|-66-6---6-----|
E|--------------|

Then this is the chorus, do it twice
G|---------------------------------------------|
D|---------------------------------------------|
A|--4-4-----------------4-4-----------666------|
E|---4-444-0h1-10-4310---4-444-0h111-----------|

Then it goes into this:
G|-------------------------------------|
D|-------------------------------------|
A|-444-------------3444------------34--|
E|-----444401114444----444401114444----|

Then this is the slow part:
G|-----------------5--5-----------------------------------|
D|----------------------------------------------5-6p5-----|
A|--8------34---8------4---8------------------66-6---63---|
E|-----8----------------------8-8--6666-4444--------------|
Then back into
G|----------------------------------------------------------|
D|----66-------------------------1010-8---------------------|
A|-444--446-888-----444--446-888-------108-444--446-888-----|
E|-------------8888----44---------------------44-------88884|

G|----------------------|
D|--------------565-5---|
A|-----------666---6----|
E|-6666-4444------------|
Now do the chorus again four times
Then:
G|---------------------------------------------------------------------------|
D|--------------------------------------------78--888------------------------|
A|-4----------4------------4-----------1-------------------------------------|
E|----1---4-------1---4--------1---4--4--------------------------------------|

G|---------------------------------------------------------------------------|
D|--------------------------------------------------------------------8888888|
A|--4-4--4-4-------------4-4-4-4------11111-4-4-4-4-----330---11111111/------|
E|---4----4-4-111-44444---4-4-4-4-111--------4---4-4-111---10----------------|

Rest a bit, then after the little break, these are elevens and thirteen’s
G|----------------131313------------------------------------|
D|----------------111111—-----------------------------------|
A|------------------------11-11-11-11-8881010---------------|
E|-------------------------------------------11-11-11-------|

G|---------------------------------------|
D|----13—-11p10--10----108\6—--86\5------|
A|--11--11-----11-----8-------6----------|
E|---------------------------------------|

Then repeat the chorus twice
 Then do this until the song ends:
G|------------------------------------|
D|----------------------—-------------|
A|----4-444---431--31-----------------|
E|---4-4-----1----1--4----------------|

| /  slide up
| \  slide down
| h  hammer-on
| p  pull-off
| ~  vibrato
| +  harmonic
| x  Mute note
===============================================================================
comments
We did not receive enough feedback on this tab! Please rate:
1 2 3 4 5
I want to post or [tab]
guest
You may want to rate the tab now too:
select rating
Please do not post tabs as comments. Select "correction" instead!