Oops, an error
Loading. Please wait.

Come Together Tab

2,554 views 6 this week
no commentswrite comment
1 2 3 4 5
please rate
Autoscroll
+/-
esc
set tempo
stop
Contributor
Difficulty
Tuning
intermediate
D# G# C# F# A# D#
Hey! There's an official Ultimate Guitar app which is ideal
for learning songs when you're away from computer. Get the app
WARNING: You are trying to view
                                    content from Ultimate-Guitar.com
                                    in an unauthorized application,
                                    which is prohibited.

                                    Please use an official Ultimate
                                    Guitar Tabs application for iPhone,
                                    iPad or Android to access legitimate
                                    chords, guitar, bass, and drum tabs
                                    from Ultimate-Guitar.com database.

                                    Type "ultimate guitar tabs" in Apple
                                    App Store's or Android Market's
                                    search to find the application.
The Gaslight Anthem- Come Together (Beatles Cover)
Tuning: Half Step (Eb Ab Db Gb Bb eb)

Chords:
Bm  -x22432
C#m -x46654
DMaj-xx0232
GMaj-320033


Notation Glossary:
. - Staccato
/ - Slide (Glissando)
PM- Palm Mute
b - Bend
v - Vibrato
h - Hammer-On
p - Pull-Off
r - Resonate
----------------------------------------------------------------------------
This song is designed for two guitars, the guitar I've done is Brian Fallons. If you are 
second guitarist replace the A7's with D's. The riff is also different, but I haven't 
that out.

Intro Riff: Based around C#m. Chords should be played staccato and palm muted lightly so 
creates a buzz.
   P M          P M           P M          P M
   . .          . .           . .          . .
e|-4-4----------4-4-----------4-4----------4-4----------------------------|
B|-5-5----------5-5-----------5-5----------5-5----------------------------|
G|-6-6-----4r-6-6-6-----4r-6--6-6-----4r-6-6-6-----4r--6------------------|
D|-6-6-4h6------6-6-4h6-------6-6-4h6------6-6-4h6------------------------|
A|-4-4----------4-4-----------4-4----------4-4----------------------------|
E|-x-x----------x-x-----------x-x----------x-x----------------------------|

When I later refer to 'Intro Riff X2' I'm saying play C#, then the following lick twice. 
is by my terms, the intro riff X4

Verse 1:
C#m
Here come old flattop he come grooving up slowly

He got joo-joo eyeball he one holy roller
       A7
He got hair down to his knee
 G
Got to be a joker he just do what he please

(Yeah)

Link to Verse 2: Intro Riff X2

Verse 2:
C#m
He wear no shoeshine he got toe-jam football

He got monkey finger he shoot coca-cola
        A7
He say "I know you, you know me"
G7
One thing I can tell you is you got to be free
Bm             G            (G.)
Come together right now over me

Link to Verse 3: Intro Riff X2

Verse 3:
C#m
He bag production he got walrus gumboot

He got Ono sideboard he one spinal cracker
        A7
He got feet down below his knee
G7
Hold you in his armchair you can feel his disease
Bm              G   G*      (G.)
Come together right now over me
____________________________________________________________________________
I've noted the G over 'Now' with an asteriks, because the second guitarist, which will 
just as cool if you are the one and only guitarist, performs a slide (glissando) from the 
G shape down to the 5th fret. Which looks like this:
e|-3-/-5-3-|
B|-3-/-5-3-|
G|-0-/-0-0-|
D|-0-/-0-0-|
A|-2-/-4-2-|
E|-3-/-5-3-|
____________________________________________________________________________

Link to Solo: Intro Riff X2

e|------------------------------------------------------------------------|
B|------------------------------------------------------------------------|
G|-5-7-5h7-5-7v---5-7-5h7-5-7v---5-7-5h7-5-7v--5-7-5h7-5-7-/--------------|
D|-0-0-0-0-0-0----0-0-0-0-0-0----0-0-0-0-0-0---0-0-0-0-0-0-/--------------|
A|------------------------------------------------------------------------|
E|------------------------------------------------------------------------|

e|------------------------------------------------------------------------|
B|------------------------------------------------------------------------|
G|-7-9-9-9b-7-9-9-9---7-9-9-9b-7-9-9-9---7-9-9-9b-------------------------|
D|-0-0-0-0--0-0-0-0---0-0-0-0--0-0-0-0---0-0-0-0--------------------------|
A|------------------------------------------------------------------------|
E|------------------------------------------------------------------------|

Link to Verse 4: Intro Riff X2

Verse 4:
C#m
He roller-coaster he got early warning

He got muddy water he one mojo filter
         A7
He say "One and one and one is three"
G7
Got to be good-looking 'cause he's so hard to see
Bm             G
Come together right now over me

Link To Outro: Intro Riff X2

Outro:
     C#m
Yeah

C#m
Come Together, right
C#m
Come Together
C#m
Come Together

It's worth mentioning at some points during the song, whilst on the C#m chord the notes 
and C# are pulled off and hammered-on, this looks like this:

e|-4--4--4--4--4-|
B|-5--5--5--5--5-|
G|-6--6--4--6--6-|
D|-6--6--4--6--6-|
A|-4--4--4--4--4-|
E|-x--x--x--x--x-|

Thank you (:
comments
We did not receive enough feedback on this tab! Please rate:
print report bad tab
1 2 3 4 5
I want to post or [tab]
guest
You may want to rate the tab now too:
select rating
Please do not post tabs as comments. Select "correction" instead!