Oops, an error
Loading. Please wait.

Stay Lucky Tab

15,951 views 42 this week
4 commentsread comments
1 2 3 4 5
excellent!
x 7
Autoscroll
+/-
esc
set tempo
stop
Contributor
Hey! There's an official Ultimate Guitar app which is ideal
for learning songs when you're away from computer. Get the app
WARNING: You are trying to view
                                    content from Ultimate-Guitar.com
                                    in an unauthorized application,
                                    which is prohibited.

                                    Please use an official Ultimate
                                    Guitar Tabs application for iPhone,
                                    iPad or Android to access legitimate
                                    chords, guitar, bass, and drum tabs
                                    from Ultimate-Guitar.com database.

                                    Type "ultimate guitar tabs" in Apple
                                    App Store's or Android Market's
                                    search to find the application.
THE GASLIGHT ANTHEM - STAY LUCKY
--------------------------------
Tabbed by: hoxxx
e-mail: bluebookfin AT gmail.com
www.bluebookband.net
--------------------------------

I know Gaslight tends to play in Eb tuning, but I do love the fresh sound of standard tuning...
so I hope you can enjoy this as much as I do! :) More Gaslight tabs coming, give me a 
if you want to!


INTRO Bb

   Bb
e-|---------------------------------------------|
B-|---------------------------------------------|
G-|----------------------12--12-12-12-15-12-----|
D-|-12---12-12-15--15-15--------------------15--|
A-|---------------------------------------------|
E-|---------------------------------------------|

   Bb
e-|---------------------------------------------|
B-|---------------------------------------------|
G-|----------------------12--12-12-12-15-12-15--|
D-|-12---12-12-15--15-15------------------------|
A-|---------------------------------------------|
E-|---------------------------------------------|

   Gm                      F
e-|-----------------------|---------------------|
B-|-13b-----13------------|---------------------|
G-|---------------15--12--|------12--15-12------|
D-|-----------------------|-15--------------15--|
A-|-----------------------|---------------------|
E-|-----------------------|---------------------|

   Bb
e-|---------------------------------------------|
B-|---------------------------------------------|
G-|----------------------12--12-12-12-15-12-----|
D-|-12---12-12-15--15-15--------------------15--|
A-|---------------------------------------------|
E-|---------------------------------------------|

   Bb
e-|---------------------------------------------|
B-|---------------------------------------------|
G-|----------------------12--12-12-12-15-15-15--|
D-|-12---12-12-15--15-15------------------------|
A-|---------------------------------------------|
E-|---------------------------------------------|

   Gm                      F
e-|-----------------------|------------------------|
B-|-13b-----13------------|------------------------|
G-|---------------15--12--|------12--15-12--15-15\-|
D-|-----------------------|-15---------------------|
A-|-----------------------|------------------------|
E-|-----------------------|------------------------|


VERSE
                                       Bb
It took so long to get me back on my feet
                                                Bb
It takes so long to find the words and the beat

And Charlie's waiting on the end of the phone
            Gm                     F
To hear you call on him to try to recapture
e-|--------------------------------|------------------------|
B-|----------13b-----13------------|------------------------|
G-|----12-15---------------15--12--|------12--15-12--15-15\-|
D-|-15-15--------------------------|-15---------------------|
A-|--------------------------------|------------------------|
E-|--------------------------------|------------------------|
                                              Bb
But them old records won't be saving your soul
                                           Bb
And them feelings got the reasons you know

That you've forgotten somewhere
                           Gm
Riding a train to place

e-|---------------------------|
B-|----------13b-----13-------|
G-|----12-15------------------|
D-|-15------------------------|
A-|---------------------------|
E-|---------------------------|

                   F
You are out in the cold cold


PRE-CHORUS
Gm                                             Cm                  F
And it feels like all you'd have to do is step outside
e-|-----------------------------------------------------------------------|
B-|-----------------------------------------------------------------------|
G-|-12--12--12-12-10-12----12-10------------10---------------10----10-12--|
D-|------------------------------12--12--12----12-10---10-12----12--------|
A-|-----------------------------------------------------------------------|
E-|-----------------------------------------------------------------------|

Gm                                      Cm          Bb             F
Stop pacing around and waiting for some moment that might never arrive
e-|---------------------------------------------------------------------------|
B-|---------------------------------11----------11----11-13--13-13------------|
G-|-12--12--12-12-10-12----12-10-12-------12-------12--------------12-10-10---|
D-|---------------------------------------------------------------------------|
A-|---------------------------------------------------------------------------|
E-|---------------------------------------------------------------------------|


CHORUS
   Bb
   But you'll never
e-|-------------------------------------|
B-|--------6-8-6h8p6----6---------------|
G-|------7------------7---7-------------|
D-|-10----------------------10-8-8-8----|
A-|-------------------------------------|
E-|-------------------------------------|

   Gm
Gonna find it
e-|-------------------------------------|
B-|--------6-8-6h8p6----6---------------|
G-|------7------------7---7-------------|
D-|-10----------------------10-8-8-8----|
A-|-------------------------------------|
E-|-------------------------------------|

Like when you were young
   Eb
e-|-------------------------------------|
B-|--------6-8-6h8p6----6---------------|
G-|------7------------7---7-------------|
D-|-10----------------------10-8-8-8----|
A-|-------------------------------------|
E-|-------------------------------------|

And everybody used to call you lucky
   Bb                          F
e-|-------------------------------------|
B-|--------6-8-6h8p6----6---------------|
G-|------7------------7---7-------------|
D-|-10----------------------8-10-10-10--|
A-|-------------------------------------|
E-|-------------------------------------|


PRE-VERSE
   Bb
e-|------------------------------------|
B-|------------------------------------|
G-|-------------12--12-12-12-15-12-----|
D-|-12-12-15-15--------------------15--|
A-|------------------------------------|
E-|------------------------------------|

   Bb
e-|-------------------------------------------------|
B-|-----------------------------------13------------|
G-|----------------------12--15----12----15-12-15\--|
D-|-12---12-12-15--15-15--------15------------------|
A-|-------------------------------------------------|
E-|-------------------------------------------------|


VERSE
                                       Bb
Nothing feels right in the wintery cold
                                             Bb
Steam, heat, clang, and the dark at your door

All the other rooms are a party tonight
            Gm                     F
And you never got an invitation
e-|-----------------------------------|------------------------|
B-|-------------13b-----13------------|------------------------|
G-|-------12-15---------------15--12--|------12--15-12--15-15\-|
D-|-12-15-----------------------------|-15---------------------|
A-|-----------------------------------|------------------------|
E-|-----------------------------------|------------------------|
                                              Bb
And you feel in your bones, steady aching some more
                                           Bb
Twenty five years gone just an hour ago

Momma never told me there'd be days like these
         Gm                   F
Until it was much too late to recover

e-|---------------------------|
B-|----------13b-----13-------|
G-|----12-15------------------|
D-|-15------------------------|
A-|---------------------------|
E-|---------------------------|


PRE-CHORUS
Gm                                             Cm                  F
And it feels like all you'd have to do is step outside
e-|-----------------------------------------------------------------------|
B-|-----------------------------------------------------------------------|
G-|-12--12--12-12-10-12----12-10------------10---------------10----10-12--|
D-|------------------------------12--12--12----12-10---10-12----12--------|
A-|-----------------------------------------------------------------------|
E-|-----------------------------------------------------------------------|

Gm                                      Cm          Bb             F
Stop pacing around and waiting for some moment that might never arrive
e-|---------------------------------------------------------------------------|
B-|---------------------------------11----------11----11-13--13-13------------|
G-|-12--12--12-12-10-12----12-10-12-------12-------12--------------12-10-10---|
D-|---------------------------------------------------------------------------|
A-|---------------------------------------------------------------------------|
E-|---------------------------------------------------------------------------|


CHORUS
   Bb
But you'll never
e-|-------------------------------------|
B-|--------6-8-6h8p6----6---------------|
G-|------7------------7---7-------------|
D-|-10----------------------10-8-8-8----|
A-|-------------------------------------|
E-|-------------------------------------|

   Gm
Gonna find it
e-|-------------------------------------|
B-|--------6-8-6h8p6----6---------------|
G-|------7------------7---7-------------|
D-|-10----------------------10-8-8-8----|
A-|-------------------------------------|
E-|-------------------------------------|

   Eb
When your knees
e-|-------------------------------------|
B-|--------6-8-6h8p6----6---------------|
G-|------7------------7---7-------------|
D-|-10----------------------10-8-8-8----|
A-|-------------------------------------|
E-|-------------------------------------|

   Bb                          F
Got so weak
e-|-------------------------------------|
B-|--------6-8-6h8p6----6---------------|
G-|------7------------7---7-------------|
D-|-10----------------------8-10-10-10--|
A-|-------------------------------------|
E-|-------------------------------------|

   Bb
But it's right here
e-|-------------------------------------|
B-|--------6-8-6h8p6----6---------------|
G-|------7------------7---7-------------|
D-|-10----------------------10-8-8-8----|
A-|-------------------------------------|
E-|-------------------------------------|

   Gm
In case you need it
e-|-------------------------------------|
B-|--------6-8-6h8p6----6---------------|
G-|------7------------7---7-------------|
D-|-10----------------------10-8-8-8----|
A-|-------------------------------------|
E-|-------------------------------------|

   Eb
Like when you were young
e-|-------------------------------------|
B-|--------6-8-6h8p6----6---------------|
G-|------7------------7---7-------------|
D-|-10----------------------10-8-8-8----|
A-|-------------------------------------|
E-|-------------------------------------|

   Bb                          F
And everybody used to call you lucky
e-|-------------------------------------|
B-|--------6-8-6h8p6----6---------------|
G-|------7------------7---7-------------|
D-|-10----------------------8-10-10-10--|
A-|-------------------------------------|
E-|-------------------------------------|

   Eb
Like when you were young
   Bb                          F
And everybody used to call you lucky


PRE-CHORUS
Gm                                             Cm                  F
And it feels like all you'd have to do is step outside
e-|-----------------------------------------------------------------------|
B-|-----------------------------------------------------------------------|
G-|-12--12--12-12-10-12----12-10------------10---------------10----10-12--|
D-|------------------------------12--12--12----12-10---10-12----12--------|
A-|-----------------------------------------------------------------------|
E-|-----------------------------------------------------------------------|

Gm                                      Cm          Bb             F
Stop pacing around and waiting for some moment that might never arrive
e-|---------------------------------------------------------------------------|
B-|---------------------------------11----------11----11-13--13-13------------|
G-|-12--12--12-12-10-12----12-10-12-------12-------12--------------12-10-10---|
D-|---------------------------------------------------------------------------|
A-|---------------------------------------------------------------------------|
E-|---------------------------------------------------------------------------|


INTERLUDE
Bb                            Gm        F
What you don't have, you don't need it anymore
e-|-----------------------------------------------------------------------|
B-|-------11----------------------------------11-------13-------13-11-----|
G-|-12-10-------12-10-------------------10-12-------12-------12-----------|
D-|----------------------12-10----10-12-----------------------------------|
A-|-----------------------------------------------------------------------|
E-|-----------------------------------------------------------------------|

Bb                            Gm        F                      Bb
What you don't have, you don't need it anymore
e-|-----------------------------------------------------------------------|
B-|-------11----------------------------------11-------13-------13-11-----|
G-|-12-10-------12-10-------------------10-12-------12-------12-----------|
D-|----------------------12-10----10-12-----------------------------------|
A-|-----------------------------------------------------------------------|
E-|-----------------------------------------------------------------------|


CHORUS
   Bb
But you'll never
e-|-------------------------------------|
B-|--------6-8-6h8p6----6---------------|
G-|------7------------7---7-------------|
D-|-10----------------------10-8-8-8----|
A-|-------------------------------------|
E-|-------------------------------------|

   Gm
Gonna find it
e-|-------------------------------------|
B-|--------6-8-6h8p6----6---------------|
G-|------7------------7---7-------------|
D-|-10----------------------10-8-8-8----|
A-|-------------------------------------|
E-|-------------------------------------|

   Eb
When your knees
e-|-------------------------------------|
B-|--------6-8-6h8p6----6---------------|
G-|------7------------7---7-------------|
D-|-10----------------------10-8-8-8----|
A-|-------------------------------------|
E-|-------------------------------------|

   Bb                          F
Got so weak
e-|-------------------------------------|
B-|--------6-8-6h8p6----6---------------|
G-|------7------------7---7-------------|
D-|-10----------------------8-10-10-10--|
A-|-------------------------------------|
E-|-------------------------------------|

   Bb
But it's right here
e-|-------------------------------------|
B-|--------6-8-6h8p6----6---------------|
G-|------7------------7---7-------------|
D-|-10----------------------10-8-8-8----|
A-|-------------------------------------|
E-|-------------------------------------|

   Gm
In case you need it
e-|-------------------------------------|
B-|--------6-8-6h8p6----6---------------|
G-|------7------------7---7-------------|
D-|-10----------------------10-8-8-8----|
A-|-------------------------------------|
E-|-------------------------------------|

   Eb
Like when you were young
e-|-------------------------------------|
B-|--------6-8-6h8p6----6---------------|
G-|------7------------7---7-------------|
D-|-10----------------------10-8-8-8----|
A-|-------------------------------------|
E-|-------------------------------------|

   Bb                          F
And everybody used to call you lucky
e-|-------------------------------------|
B-|--------6-8-6h8p6----6---------------|
G-|------7------------7---7-------------|
D-|-10----------------------8-10-10-10--|
A-|-------------------------------------|
E-|-------------------------------------|

   Eb
Like when you were young
   Bb                          F
And everybody used to call you lucky


NOTE:
Play the ending with
Bb and F switching back and forth, and end in Bb :)


If you're anywhere in Manhattan
In the next eight days or so
Let me know
Speak to stay lucky

************************************

| /   slide up
| \   slide down
| h   hammer-on
| p   pull-off
| ~   vibrato
| +   harmonic
| x   Mute note
| b   Bend
| pb  Pre-bend
| br  Bend release
| pbr Pre-bend release
| brb Bend release bend

************************************
comments
print report bad tab
4 comments total. Showing first comments.
0 reply
fallen4nothing wrote on March 27 2011, 07:16 pm

I'm sorry to burst you bubble but 95% of their songs are in tuning of D standard and some songs are in E standard tuning but may 2% is in Eb tuning. otherwise good tab man.

0 reply
JT91 wrote on April 19 2011, 04:00 pm

so is this actually played in standard or D standard??
great tab btw :)

0 reply
Meikle Treikle wrote on January 14 2012, 06:23 pm

awesome tab!

I want to post or [tab]
guest
You may want to rate the tab now too:
select rating
Please do not post tabs as comments. Select "correction" instead!