Oops, an error
Loading. Please wait.

The Diamond Church Street Choir Tab

19,119 views 57 this week
3 commentsread comments
1 2 3 4 5
excellent!
x 5
add to favorites launch autoscroll
font size
0
reset
Autoscroll
+/-
esc
set tempo
stop
Contributor
Difficulty
novice
WARNING: You are trying to view
                                    content from Ultimate-Guitar.com
                                    in an unauthorized application,
                                    which is prohibited.

                                    Please use an official Ultimate
                                    Guitar Tabs application for iPhone,
                                    iPad or Android to access legitimate
                                    chords, guitar, bass, and drum tabs
                                    from Ultimate-Guitar.com database.

                                    Type "ultimate guitar tabs" in Apple
                                    App Store's or Android Market's
                                    search to find the application.
THE GASLIGHT ANTHEM - THE DIAMOND CHURCH STREET CHOIR
-----------------------------------------------------
Tabbed by: hoxxx
e-mail: bluebookfin AT gmail.com
www.bluebookband.net
-----------------------------------------------------

TUNING: STANDARD

Pretty straightforward and easy song to play. Hopefully it's enough correct
for you guys to enjoy. Anyway, some of the parts were really _really_ ghost
notes, so they were hard to block out of there.

INTRO
    Am     F          C      G         Am     F          C      G
e-|----------------|-----------------|----------------|-----------------|-
B-|----------------|--5---x----------|----------------|--5---x----------|-
G-|-9---x--5---5---|--x---x--7---7---|-9---x--5---5---|--x---x--7---7---|-
D-|-7---x--3---3---|--5---x--5---5---|-7---x--3---3---|--5---x--5---5---|-
A-|-7---x--3---3---|--5---x--5---5---|-7---x--3---3---|--5---x--5---5---|-
E-|----------------|-----------------|----------------|-----------------|-

    Am     F          C      G         Am     F          C      G
e-|----------------|-----------------|----------------|-----------------|-
B-|----------------|--5---x----------|----------------|--5---x----------|-
G-|-9---x--5---5---|--x---x--7---7---|-9---x--5---5---|--x---x--7---7---|-
D-|-7---x--3---3---|--5---x--5---5---|-7---x--3---3---|--5---x--5---5---|-
A-|-7---x--3---3---|--5---x--5---5---|-7---x--3---3---|--5---x--5---5---|-
E-|----------------|-----------------|----------------|-----------------|-
  |                |                 |                |                 |
e-|----------------|-----------------|----------------|-----------------|- 
B-|-8--5-----------|--5h8------------|--5h8-----------|-----------------|-
G-|-------7--5-----|-(5)--7---5------|-(5)--7----5-5--|-let-ring--------|-
D-|----------------|------------7----|----------------|-----------------|-
A-|----------------|-----------------|----------------|-----------------|-
E-|----------------|-----------------|----------------|-----------------|-


VERSE
    Am     F          C      G         Am     F          C      G
Now the lights go low on the avenue  and the cars pass by in the rain
e-|----------------|-----------------|----------------|-----------------|-
B-|----------------|--5---x----------|----------------|--5---x----------|-
G-|-9---x--5---5---|--x---x--7---7---|-9---x--5---5---|--x---x--7---7---|-
D-|-7---x--3---3---|--5---x--5---5---|-7---x--3---3---|--5---x--5---5---|-
A-|-7---x--3---3---|--5---x--5---5---|-7---x--3---3---|--5---x--5---5---|-
E-|----------------|-----------------|----------------|-----------------|-
  |                |                 |                |                 |
e-|----------------|-----------------|----------------|-----------------|- 
B-|-8--5-----5-----|-let-ring--------|-8--5---5---/(8)|\(5)-------------|-
G-|-------7--------|-----------------|------7---------|------7----------|-
D-|----------------|-----------------|----------------|-----------------|-
A-|----------------|-----------------|----------------|-----------------|-
E-|----------------|-----------------|----------------|-----------------|-

    Am     F           C      G             Am     F              C      G
University boys and the girls fill the bars while I'm just waiting on the light to change
e-|-----------------|---------------------|--------------------|-----------------|-
B-|-----------------|--5---x--------------|--------------------|--5---x----------|-
G-|-9---x--5---5----|--x---x--7-----7-----|-9---x--5-----5-----|--x---x--7---7---|-
D-|-7---x--3---3----|--5---x--5-----5-----|-7---x--3-----3-----|--5---x--5---5---|-
A-|-7---x--3---3----|--5---x--5-----5-----|-7---x--3-----3-----|--5---x--5---5---|-
E-|-----------------|---------------------|--------------------|-----------------|-
  |                 |                     |                    |                 |
e-|-----------------|---------------------|--------------------|-----------------|- 
B-|-8--5----5-------|------5h8------------|-----5h8------------|-----------------|-
G-|-------7---------|------------7---5--5-|----(5)---7--5------|-----------------|-
D-|-----------------|---------------------|----------------7---|-let-ring--------|-
A-|-----------------|---------------------|--------------------|-----------------|-
E-|-----------------|---------------------|--------------------|-----------------|-

    Am     F            C      G             Am     F            C      G
And the steam heat pours from the bodies on the floor in the basement where the Jacknives play
e-|------------------|---------------------|------------------|---------------------|-
B-|------------------|--5---x--------------|------------------|--5---x--------------|-
G-|-9---x--5----5----|--x---x--7-----7-----|-9---x--5---5-----|--x---x--7-----7-----|-
D-|-7---x--3----3----|--5---x--5-----5-----|-7---x--3---3-----|--5---x--5-----5-----|-
A-|-7---x--3----3----|--5---x--5-----5-----|-7---x--3---3-----|--5---x--5-----5-----|-
E-|------------------|---------------------|------------------|---------------------|-
  |                  |                     |                  |                     |
e-|------------------|---------------------|------------------|---------------------|-
B-|-5h8---5----------|---------5-8---------|-5h8---5----------|---------5-8---------|-
G-|---------7--5-----|-----5--------7------|---------7--5-----|-----5--------7------|-
D-|------------------|-5h7-----------------|------------------|-5h7-----------------|-
A-|------------------|---------------------|------------------|---------------------|-
E-|------------------|---------------------|------------------|---------------------|-

    Am     F            C      G             Am     F            C      G
For the hub city girls in their ribbons and the curls, who know the meaning of staying out late
e-|------------------|---------------------|------------------|---------------------|-
B-|------------------|--5---x--------------|------------------|--5---x--------------|-
G-|-9---x--5----5----|--x---x--7-----7-----|-9---x--5---5-----|--x---x--7-----7-----|-
D-|-7---x--3----3----|--5---x--5-----5-----|-7---x--3---3-----|--5---x--5-----5-----|-
A-|-7---x--3----3----|--5---x--5-----5-----|-7---x--3---3-----|--5---x--5-----5-----|-
E-|------------------|---------------------|------------------|---------------------|-
  |                  |                     |                  |                     |
e-|------------------|---------------------|------------------|---------------------|-
B-|-5h8---5----------|---------5-8---------|-5h8--------------|---------------------|-
G-|---------7--5-----|-----5--------7------|-----7---5--------|----5----------------|-
D-|------------------|-5h7-----------------|------------------|-7-------------------|-
A-|------------------|---------------------|------------------|---------------------|-
E-|------------------|---------------------|------------------|---------------------|-

     Em                     F          G
They know the meaning of staying out very, very late........ singing
e-|------------------------------------------------|-
B-|------------------------------------------------|-
G-|--0-----0----0----0------2---2--2---4---4---4---|-
D-|--2-----2----2----2------3---3--3---5---5---5---|-
A-|--2-----2----2----2------3---3--3---5---5---5---|-
E-|--0-----0----0----0------1---1--1---3---3---3---|-
  |                                                |
e-|------------------------------------------------|-
B-|------------------------------------------------|-
G-|------------------------------------------------|-
D-|--9-----9----7----9------10--9--10--12--12--12\-|-
A-|------------------------------------------------|-
E-|------------------------------------------------|-


CHORUS
    C                              G
   Whoo    whoo   whoo   whoo      does it better than we do
e-|------------------------------|------------------------------|-
B-|-5------5------5------5-------|------------------------------|-
G-|-5------5------5------5-------|-4------4------4------4-------|-
D-|-5------5------5------5-------|-5------5------5------5-------|-
A-|-3------3------3------3-------|-5------5------5------5-------|-
E-|------------------------------|-3------3------3------3-------|-
  |                              |                              |
e-|------------------------------|------------------------------|-
B-|------------------------------|------------------------------|-
G-|------12p9------12--p9-----12-|------/14--12-----------------|-
D-|-12----------12--------12-----|--------------------14--12----|-
A-|------------------------------|------------------------------|-
E-|------------------------------|------------------------------|-

    Am                             F                    G
Them sopranos in Andy Diamond's choir
e-|------------------------------|------------------------------|-
B-|------------------------------|------------------------------|-
G-|-5------5------5------5-------|-2------2----------x--4-------|-
D-|-7------7------7------7-------|-3------3----------x--5-------|-
A-|-7------7------7------7-------|-3------3----------x--5-------|-
E-|-5------5------5------5-------|-1------1----------x--3-------|-
  |                              |                              |
e-|------------------------------|------------------------------|-
B-|------------------------------|-----------13-----------------|-
G-|------12h9------12--h9-----9--|------/14-----------14--12----|-
D-|-12----------12--------12-----|------------------------------|-
A-|------------------------------|------------------------------|-
E-|------------------------------|------------------------------|-

    C                              G
   Whoa   whoa   whoa   whoa      nobody knows
e-|------------------------------|------------------------------|-
B-|-5------5------5------5-------|------------------------------|-
G-|-5------5------5------5-------|-4------4------4------4-------|-
D-|-5------5------5------5-------|-5------5------5------5-------|-
A-|-3------3------3------3-------|-5------5------5------5-------|-
E-|------------------------------|-3------3------3------3-------|-
  |                              |                              |
e-|------------------------------|------------------------------|-
B-|------------------------------|------------------------------|-
G-|------12p9------12--p9-----12-|------/14--12-----------------|-
D-|-12----------12--------12-----|--------------------14--12----|-
A-|------------------------------|------------------------------|-
E-|------------------------------|------------------------------|-

    Am                             F                    G
I've been crazy for so long without you
e-|------------------------------|------------------------------|-
B-|------------------------------|------------------------------|-
G-|-5------5------5------5-------|-2------2----------x--4-------|-
D-|-7------7------7------7-------|-3------3----------x--5-------|-
A-|-7------7------7------7-------|-3------3----------x--5-------|-
E-|-5------5------5------5-------|-1------1----------x--3-------|-
  |                              |                              |
e-|------------------------------|------------------------------|-
B-|------------------------------|-----------13-----------------|-
G-|------12p9------12--p9-----9--|------/14-----------14--12----|-
D-|-12----------12--------12-----|------------------------------|-
A-|------------------------------|------------------------------|-
E-|------------------------------|------------------------------|-


BREAK
    Am     F            C      G             Am     F            C      G
e-|------------------|---------------------|------------------|---------------------|-
B-|------------------|--5---x--------------|------------------|--5---x--------------|-
G-|-9---x--5----5----|--x---x--7-----7-----|-9---x--5---5-----|--x---x--7-----7-----|-
D-|-7---x--3----3----|--5---x--5-----5-----|-7---x--3---3-----|--5---x--5-----5-----|-
A-|-7---x--3----3----|--5---x--5-----5-----|-7---x--3---3-----|--5---x--5-----5-----|-
E-|------------------|---------------------|------------------|---------------------|-
  |                  |                     |                  |                     |
e-|------------------|---------------------|------------------|---------------------|-
B-|------------------|---------------------|------------------|---------------------|-
G-|-17~--------------|---------/19--17--14-|-17--14--12--12~--|---------------------|-
D-|------------------|---------------------|------------------|---------------------|-
A-|------------------|---------------------|------------------|---------------------|-
E-|------------------|---------------------|------------------|---------------------|-


VERSE
    Am     F            C      G             Am     F            C      G
They'll find me beat down out in the universe though I'll never forget where I'm from
e-|------------------|---------------------|------------------|---------------------|-
B-|------------------|--5---x--------------|------------------|--5---x--------------|-
G-|-9---x--5----5----|--x---x--7-----7-----|-9---x--5---5-----|--x---x--7-----7-----|-
D-|-7---x--3----3----|--5---x--5-----5-----|-7---x--3---3-----|--5---x--5-----5-----|-
A-|-7---x--3----3----|--5---x--5-----5-----|-7---x--3---3-----|--5---x--5-----5-----|-
E-|------------------|---------------------|------------------|---------------------|-
  |                  |                     |                  |                     |
e-|------------------|---------------------|------------------|---------------------|-
B-|------------------|---------------------|------------------|---------------------|-
G-|------------------|---------------------|------------------|---------/14--12--14~|-
D-|------------------|---------------------|------------------|---------------------|-
A-|------------------|---------------------|------------------|---------------------|-
E-|------------------|---------------------|------------------|---------------------|-

    Am     F            C      G             Am     F            C      G
I might have moved away from home, and slpet out there on my own, a million miles 
away in the stone
e-|------------------|---------------------|------------------|---------------------|-
B-|------------------|--5---x--------------|------------------|--5---x--------------|-
G-|-9---x--5----5----|--x---x--7-----7-----|-9---x--5---5-----|--x---x--7-----7-----|-
D-|-7---x--3----3----|--5---x--5-----5-----|-7---x--3---3-----|--5---x--5-----5-----|-
A-|-7---x--3----3----|--5---x--5-----5-----|-7---x--3---3-----|--5---x--5-----5-----|-
E-|------------------|---------------------|------------------|---------------------|-
  |                  |                     |                  |                     |
e-|------------------|---------------------|------------------|---------------------|-
B-|------------------|---------------------|------------------|---------------------|-
G-|-------(14)--(12)-|---(9)---------------|---(9)------------|---------------------|-
D-|------------------|---------(12)--------|----------(12)----|-(10)----------------|-
A-|------------------|---------------------|------------------|---------------------|-
E-|------------------|---------------------|------------------|---------------------|-

    Am     F            C      G             Am     F            C      G
But the beat never leaves, and the temple's a relief to my aching bones, rambling all over
e-|------------------|---------------------|------------------|---------------------|-
B-|------------------|--5---x--------------|------------------|--5---x--------------|-
G-|-9---x--5----5----|--x---x--7-----7-----|-9---x--5---5-----|--x---x--7-----7-----|-
D-|-7---x--3----3----|--5---x--5-----5-----|-7---x--3---3-----|--5---x--5-----5-----|-
A-|-7---x--3----3----|--5---x--5-----5-----|-7---x--3---3-----|--5---x--5-----5-----|-
E-|------------------|---------------------|------------------|---------------------|-
  |                  |                     |                  |                     |
e-|------------------|---------------------|------------------|---------------------|-
B-|-5h8---5----------|---------5-8---------|-5h8---5----------|---------5-8---------|-
G-|---------7--5-----|-----5--------7------|---------7--5-----|-----5--------7------|-
D-|------------------|-5h7-----------------|------------------|-5h7-----------------|-
A-|------------------|---------------------|------------------|---------------------|-
E-|------------------|---------------------|------------------|---------------------|-

    Am     F            C      G             Am     F            C      G
And if I'm gone for too long, I can always hum along, so don't never forget what I told you
e-|------------------|---------------------|------------------|---------------------|-
B-|------------------|--5---x--------------|------------------|--5---x--------------|-
G-|-9---x--5----5----|--x---x--7-----7-----|-9---x--5---5-----|--x---x--7-----7-----|-
D-|-7---x--3----3----|--5---x--5-----5-----|-7---x--3---3-----|--5---x--5-----5-----|-
A-|-7---x--3----3----|--5---x--5-----5-----|-7---x--3---3-----|--5---x--5-----5-----|-
E-|------------------|---------------------|------------------|---------------------|-
  |                  |                     |                  |                     |
e-|------------------|---------------------|------------------|---------------------|-
B-|-5h8---5----------|---------5-8---------|-5h8--------------|---------------------|-
G-|---------7--5-----|-----5--------7------|-----7---5--------|----5--------7--5----|-
D-|------------------|-5h7-----------------|------------------|-7-------------------|-
A-|------------------|---------------------|------------------|---------------------|-
E-|------------------|---------------------|------------------|---------------------|-

     Em                     F          G
    So don't you never forget what I told you...... everybody singing
e-|------------------------------------------------|-
B-|------------------------------------------------|-
G-|--0-----0----0----0------2---2--2---4---4---4---|-
D-|--2-----2----2----2------3---3--3---5---5---5---|-
A-|--2-----2----2----2------3---3--3---5---5---5---|-
E-|--0-----0----0----0------1---1--1---3---3---3---|-
  |                                                |
e-|------------------------------------------------|-
B-|------------------------------------------------|-
G-|------------------------------------------------|-
D-|--9-----9----7----9------10--9--10--12--12--12\-|-
A-|------------------------------------------------|-
E-|------------------------------------------------|-


CHORUS
    C                              G
   Whoo    whoo   whoo   whoo      does it better than we do
e-|------------------------------|------------------------------|-
B-|-5------5------5------5-------|------------------------------|-
G-|-5------5------5------5-------|-4------4------4------4-------|-
D-|-5------5------5------5-------|-5------5------5------5-------|-
A-|-3------3------3------3-------|-5------5------5------5-------|-
E-|------------------------------|-3------3------3------3-------|-
  |                              |                              |
e-|------------------------------|------------------------------|-
B-|------------------------------|------------------------------|-
G-|------12p9------12--p9-----12-|------/14--12-----------------|-
D-|-12----------12--------12-----|--------------------14--12----|-
A-|------------------------------|------------------------------|-
E-|------------------------------|------------------------------|-

    Am                             F                    G
Them sopranos in Andy Diamond's choir
e-|------------------------------|------------------------------|-
B-|------------------------------|------------------------------|-
G-|-5------5------5------5-------|-2------2----------x--4-------|-
D-|-7------7------7------7-------|-3------3----------x--5-------|-
A-|-7------7------7------7-------|-3------3----------x--5-------|-
E-|-5------5------5------5-------|-1------1----------x--3-------|-
  |                              |                              |
e-|------------------------------|------------------------------|-
B-|------------------------------|-----------13-----------------|-
G-|------12p9------12--p9-----9--|------/14-----------14--12----|-
D-|-12----------12--------12-----|------------------------------|-
A-|------------------------------|------------------------------|-
E-|------------------------------|------------------------------|-

    C                              G
   Whoa   whoa   whoa   whoa      nobody knows
e-|------------------------------|------------------------------|-
B-|-5------5------5------5-------|------------------------------|-
G-|-5------5------5------5-------|-4------4------4------4-------|-
D-|-5------5------5------5-------|-5------5------5------5-------|-
A-|-3------3------3------3-------|-5------5------5------5-------|-
E-|------------------------------|-3------3------3------3-------|-
  |                              |                              |
e-|------------------------------|------------------------------|-
B-|------------------------------|------------------------------|-
G-|------12p9------12--p9-----12-|------/14--12-----------------|-
D-|-12----------12--------12-----|--------------------14--12----|-
A-|------------------------------|------------------------------|-
E-|------------------------------|------------------------------|-

    Am                             F                    G
I've been crazy for so long without you
e-|------------------------------|------------------------------|-
B-|------------------------------|------------------------------|-
G-|-5------5------5------5-------|-2------2----------x--4-------|-
D-|-7------7------7------7-------|-3------3----------x--5-------|-
A-|-7------7------7------7-------|-3------3----------x--5-------|-
E-|-5------5------5------5-------|-1------1----------x--3-------|-
  |                              |                              |
e-|------------------------------|------------------------------|-
B-|------------------------------|-----------13-----------------|-
G-|------12p9------12--p9-----9--|------/14-----------14--12----|-
D-|-12----------12--------12-----|------------------------------|-
A-|------------------------------|------------------------------|-
E-|------------------------------|------------------------------|-

    C                              G
   Just, baby                    who sings the
e-|------------------------------|------------------------------|-
B-|-5------5------5------5-------|------------------------------|-
G-|-5------5------5------5-------|-4------4------4------4-------|-
D-|-5------5------5------5-------|-5------5------5------5-------|-
A-|-3------3------3------3-------|-5------5------5------5-------|-
E-|------------------------------|-3------3------3------3-------|-
  |                              |                              |
e-|------------------------------|------------------------------|-
B-|------------------------------|------------------------------|-
G-|------12p9------12--p9-----12-|------/14--12-----------------|-
D-|-12----------12--------12-----|--------------------14--12----|-
A-|------------------------------|------------------------------|-
E-|------------------------------|------------------------------|-

    Am                             F                    G
   rhytm and the                  blues
e-|------------------------------|------------------------------|-
B-|------------------------------|------------------------------|-
G-|-5------5------5------5-------|-2------2----------x--4-------|-
D-|-7------7------7------7-------|-3------3----------x--5-------|-
A-|-7------7------7------7-------|-3------3----------x--5-------|-
E-|-5------5------5------5-------|-1------1----------x--3-------|-
  |                              |                              |
e-|------------------------------|------------------------------|-
B-|------------------------------|-----------13-----------------|-
G-|------12p9------12--p9-----9--|------/14-----------14--12----|-
D-|-12----------12--------12-----|------------------------------|-
A-|------------------------------|------------------------------|-
E-|------------------------------|------------------------------|-

    C                              G
So sad                          so slow
e-|------------------------------|------------------------------|-
B-|-5------5------5------5-------|------------------------------|-
G-|-5------5------5------5-------|-4------4------4------4-------|-
D-|-5------5------5------5-------|-5------5------5------5-------|-
A-|-3------3------3------3-------|-5------5------5------5-------|-
E-|------------------------------|-3------3------3------3-------|-
  |                              |                              |
e-|------------------------------|------------------------------|-
B-|------------------------------|------------------------------|-
G-|------12p9------12--p9-----12-|------/14--12-----------------|-
D-|-12----------12--------12-----|--------------------14--12----|-
A-|------------------------------|------------------------------|-
E-|------------------------------|------------------------------|-

   Am                              F                    G
like I do                      like I do
e-|------------------------------|------------------------------|-
B-|------------------------------|------------------------------|-
G-|-5------5------5------5-------|-2------2----------x--4-------|-
D-|-7------7------7------7-------|-3------3----------x--5-------|-
A-|-7------7------7------7-------|-3------3----------x--5-------|-
E-|-5------5------5------5-------|-1------1----------x--3-------|-
  |                              |                              |
e-|------------------------------|------------------------------|-
B-|------------------------------|-----------13-----------------|-
G-|------12p9------12--p9-----9--|------/14-----------14--12----|-
D-|-12----------12--------12-----|------------------------------|-
A-|------------------------------|------------------------------|-
E-|------------------------------|------------------------------|-


INTERLUDE
   C                  Em                     F                         G
    Oh            oh   oh           ain't it just like you wanted to
e-|------------------|----------------------|-------------------------|-----------------------|-
B-|------------------|-12-----------(12)-12-|-13-15.--13.--12.--------|-----------------------|-
G-|-12------------14-|----------------------|------------------14-12--|---12h14-12------------|-
D-|------------------|----------------------|-------------------------|-------------14-12--14-|-
A-|------------------|----------------------|-------------------------|-----------------------|-
E-|------------------|----------------------|-------------------------|-----------------------|-
   
   C                  Em                     F                         G
And oh            oh   oh                  ain't it just              like you always wanted to 
e-|------------------|----------------------|-------------------------|---------------0*------|-
B-|------------------|-12-----------(12)-12-|-13-15.--13.--12.--------|---------------0-------|-
G-|-12------------14-|----------------------|------------------14-12--|---------------5-------|-
D-|------------------|----------------------|-------------------------|---------------5-------|-
A-|------------------|----------------------|-------------------------|---------------0-------|-
E-|------------------|----------------------|-------------------------|-----------------------|-

*NOTE:
This chord is probably Am, but if you add the note the singer sings, you will get a chord sounding
like Am9 - which I have portrayed there :) Play which ever you want.


BREAK
    Am     F            C      G             Am     F            C      G
e-|------------------|---------------------|------------------|----------------------|-
B-|------------------|--5---x--------------|------------------|--5---x---------------|-
G-|-9---x--5----5----|--x---x--7-----7-----|-9---x--5---5-----|--x---x--7-----7------|-
D-|-7---x--3----3----|--5---x--5-----5-----|-7---x--3---3-----|--5---x--5-----5------|-
A-|-7---x--3----3----|--5---x--5-----5-----|-7---x--3---3-----|--5---x--5-----5------|-
E-|------------------|---------------------|------------------|----------------------|-
  |                  |                     |                  |                      |
e-|------------------|---------------------|------------------|----------------------|-
B-|------------------|---------------------|------------------|----+-----------------|-
G-|------------------|---------------------|------------------|-pbr7----(7)p(5)------|-
D-|------------------|---------------5.-5.-|-5-7--------------|----------------------|-
A-|------------------|-----------5h7-------|------------------|----------------------|-
E-|------------------|---------------------|------------------|----------------------|-

    Am     F            C      G             Am     F            C      G
Every night waiting,                         so long without you
e-|------------------|---------------------|------------------|---------------------|-
B-|------------------|--5---x--------------|------------------|--5---x--------------|-
G-|-9---x--5----5----|--x---x--7-----7-----|-9---x--5---5-----|--x---x--7-----7-----|-
D-|-7---x--3----3----|--5---x--5-----5-----|-7---x--3---3-----|--5---x--5-----5-----|-
A-|-7---x--3----3----|--5---x--5-----5-----|-7---x--3---3-----|--5---x--5-----5-----|-
E-|------------------|---------------------|------------------|---------------------|-


CHORUS
    C                              G
   Whoo    whoo   whoo   whoo      does it better than we do
e-|------------------------------|------------------------------|-
B-|-5------5------5------5-------|------------------------------|-
G-|-5------5------5------5-------|-4------4------4------4-------|-
D-|-5------5------5------5-------|-5------5------5------5-------|-
A-|-3------3------3------3-------|-5------5------5------5-------|-
E-|------------------------------|-3------3------3------3-------|-
  |                              |                              |
e-|------------------------------|------------------------------|-
B-|------------------------------|------------------------------|-
G-|------12p9------12--p9-----12-|------/14--12-----------------|-
D-|-12----------12--------12-----|--------------------14--12----|-
A-|------------------------------|------------------------------|-
E-|------------------------------|------------------------------|-

    Am                             F                    G
Them sopranos in Andy Diamond's choir
e-|------------------------------|------------------------------|-
B-|------------------------------|------------------------------|-
G-|-5------5------5------5-------|-2------2----------x--4-------|-
D-|-7------7------7------7-------|-3------3----------x--5-------|-
A-|-7------7------7------7-------|-3------3----------x--5-------|-
E-|-5------5------5------5-------|-1------1----------x--3-------|-
  |                              |                              |
e-|------------------------------|------------------------------|-
B-|------------------------------|-----------13-----------------|-
G-|------12p9------12--p9-----9--|------/14-----------14--12----|-
D-|-12----------12--------12-----|------------------------------|-
A-|------------------------------|------------------------------|-
E-|------------------------------|------------------------------|-

    C                              G
   Whoa   whoa   whoa   whoa      nobody knows
e-|------------------------------|------------------------------|-
B-|-5------5------5------5-------|------------------------------|-
G-|-5------5------5------5-------|-4------4------4------4-------|-
D-|-5------5------5------5-------|-5------5------5------5-------|-
A-|-3------3------3------3-------|-5------5------5------5-------|-
E-|------------------------------|-3------3------3------3-------|-
  |                              |                              |
e-|------------------------------|------------------------------|-
B-|------------------------------|------------------------------|-
G-|------12p9------12--p9-----12-|------/14--12-----------------|-
D-|-12----------12--------12-----|--------------------14--12----|-
A-|------------------------------|------------------------------|-
E-|------------------------------|------------------------------|-

    Am                             F                    G
I've been crazy for so long without you
e-|------------------------------|------------------------------|-
B-|------------------------------|------------------------------|-
G-|-5------5------5------5-------|-2------2----------x--4-------|-
D-|-7------7------7------7-------|-3------3----------x--5-------|-
A-|-7------7------7------7-------|-3------3----------x--5-------|-
E-|-5------5------5------5-------|-1------1----------x--3-------|-
  |                              |                              |
e-|------------------------------|------------------------------|-
B-|------------------------------|-----------13-----------------|-
G-|------12p9------12--p9-----9--|------/14-----------14--12----|-
D-|-12----------12--------12-----|------------------------------|-
A-|------------------------------|------------------------------|-
E-|------------------------------|------------------------------|-

    C                              G
   Just, baby                    who sings the
e-|------------------------------|------------------------------|-
B-|-5------5------5------5-------|------------------------------|-
G-|-5------5------5------5-------|-4------4------4------4-------|-
D-|-5------5------5------5-------|-5------5------5------5-------|-
A-|-3------3------3------3-------|-5------5------5------5-------|-
E-|------------------------------|-3------3------3------3-------|-
  |                              |                              |
e-|------------------------------|------------------------------|-
B-|------------------------------|------------------------------|-
G-|------12p9------12--p9-----12-|------/14--12-----------------|-
D-|-12----------12--------12-----|--------------------14--12----|-
A-|------------------------------|------------------------------|-
E-|------------------------------|------------------------------|-

    Am                             F                    G
   rhytm and the                  blues
e-|------------------------------|------------------------------|-
B-|------------------------------|------------------------------|-
G-|-5------5------5------5-------|-2------2----------x--4-------|-
D-|-7------7------7------7-------|-3------3----------x--5-------|-
A-|-7------7------7------7-------|-3------3----------x--5-------|-
E-|-5------5------5------5-------|-1------1----------x--3-------|-
  |                              |                              |
e-|------------------------------|------------------------------|-
B-|------------------------------|-----------13-----------------|-
G-|------12p9------12--p9-----9--|------/14-----------14--12----|-
D-|-12----------12--------12-----|------------------------------|-
A-|------------------------------|------------------------------|-
E-|------------------------------|------------------------------|-

    C                              G
So sad                          so slow
e-|------------------------------|------------------------------|-
B-|-5------5------5------5-------|------------------------------|-
G-|-5------5------5------5-------|-4------4------4------4-------|-
D-|-5------5------5------5-------|-5------5------5------5-------|-
A-|-3------3------3------3-------|-5------5------5------5-------|-
E-|------------------------------|-3------3------3------3-------|-
  |                              |                              |
e-|------------------------------|------------------------------|-
B-|------------------------------|------------------------------|-
G-|------12p9------12--p9-----12-|------/14--12-----------------|-
D-|-12----------12--------12-----|--------------------14--12----|-
A-|------------------------------|------------------------------|-
E-|------------------------------|------------------------------|-

   Am                              F        G        C
like I do                         JUST     LIKE  YOU  WANT  TOO
e-|------------------------------|------------------------------|-
B-|------------------------------|-------------------5----------|-
G-|-5------5------5------5-------|-2--3--2--4--4--4--5----------|-
D-|-7------7------7------7-------|-3--3--3--5--5--5--5----------|-
A-|-7------7------7------7-------|-3--3--3--5--5--5--3----------|-
E-|-5------5------5------5-------|-1--1--1--3--3--3-------------|-
  |                              |                              |
e-|------------------------------|------------------------------|-
B-|------------------------------|------------------------------|-
G-|------12p9------12--p9-----9--|------------------------------|-
D-|-12----------12--------12-----|------------------------------|-
A-|------------------------------|------------------------------|-
E-|------------------------------|------------------------------|-

************************************

| /   slide up
| \   slide down
| h   hammer-on
| p   pull-off
| ~   vibrato
| +   harmonic
| x   Mute note
| b   Bend
| pb  Pre-bend
| br  Bend release
| pbr Pre-bend release
| brb Bend release bend

************************************
comments
print report bad tab
3 comments total.
-1 reply
buzzer2607 wrote on August 11 2010, 05:56 pm

Sounds alright, though not the way Brian plays it.

The correct way it should be played is by tuning it down a step with a progression of Bm, G, D and A.

-1 reply
hoxxx wrote on August 12 2010, 12:12 am

Yeah, I know :) Probably all of their songs are tuned down a step. But I dooooo love standard tuning, so I make all my tabs/chords accordingly. Hope you enjoyed it anywows ;)

0 reply
Skinnymac wrote on July 23 2012, 09:35 pm

Actually, the studio version is in C.

I want to post or [tab]
guest
You may want to rate the tab now too:
select rating
Please do not post tabs as comments. Select "correction" instead!