Oops, an error
Loading. Please wait.

Destined Tab

ver1
ver1

Whole song

Interactive

More versions @911Tabs.com
1,341 views 6 this week
no commentswrite comment
1 2 3 4 5
excellent!
x 1
Autoscroll
+/-
esc
set tempo
stop
Contributor
Difficulty
Tuning
novice
B F# B E G# C#
Hey! There's an official Ultimate Guitar app which is ideal
for learning songs when you're away from computer. Get the app
WARNING: You are trying to view
                                    content from Ultimate-Guitar.com
                                    in an unauthorized application,
                                    which is prohibited.

                                    Please use an official Ultimate
                                    Guitar Tabs application for iPhone,
                                    iPad or Android to access legitimate
                                    chords, guitar, bass, and drum tabs
                                    from Ultimate-Guitar.com database.

                                    Type "ultimate guitar tabs" in Apple
                                    App Store's or Android Market's
                                    search to find the application.
THE GHOST INSIDE
DESTINED
B-F#-B-E-G#-C#

TABBED BY andherembrace

L
---------------------------------------------------------------|
---------------------------------------------------------------|
---------------------------------------------------------------|
---------------------------------------------------------------|
-/\--8-5-------8-5---------------8-5-------8-5------5----------|
-/\-----0-0-0-0---0-0-0-0-0-0-0-0---0-0-0-0---0-0-0--8-5-7-8---|
        *   * *   *   * * * * * *   *   * *   *   *  
R
---------------------------------------------------------------|
---------------------------------------------------------------|
---------------------------------------------------------------|
---------------------------------------------------------------|
-/\-0----------------------------------------------------------|
-/\-0------------------------------------------------8-5-7-8---|


L
-------------------------------------------------------------|
-------------------------------------------------------------|
-------------------------------------------------------------|
-------------------------------------------------------------|
---8-5-------8-5---------------8-5-------8-5----------\------|
------0-0-0-0---0-0-0-0-0-0-0-0---0-0-0-0---0-00000-0-\------|
      *   * *   *   * * * * * *   *   * *   * ***** *  
R
---------------------------------------------------------------|
---------------------------------------------------------------|
---------------------------------------------------------------|
---------------------------------------------------------------|
-----------0-----------------PS\-------------------------------|
-----------0--------------------\----------0-00000-0-----------|
                                           * ***** *

---------------------------------------------------------------|
---------------------------------------------------------------|
---------------------------------------------------------------|
---------------------------------------------------------------|
-----8-5-------8-5---------------8-5-------8-5------5----------|
--------0-0-0-0---0-0-0-0-0-0-0-0---0-0-0-0---0-0-0--8-5-7-8---|
        *   * *   *   * * * * * *   *   * *   *   *  

-------------------------------------------------------------|
-------------------------------------------------------------|
-------------------------------------------------------------|
-------------------------------------------------------------|
---8-5-------8-5---------------8-5-------8-5---------7--7--7-|
------0-0-0-0---0-0-0-0-0-0-0-0---0-0-0-0---0-8-0-7-10-10-10-|
      *   * *   *   * * * * * *   *   * *   *   *  


L
---------------------------------------------------------------------------|
---------------------------------------------------------------------------|
---------------------------------------------------------------------------|
-3-3-333--0-0-000--2-2-222--5-5-555-3-3-333--0-0-000--2-2-222--5-5-555-----|
-5-5-555--1-1-111--3-3-333--7-7-777-5-5-555--1-1-111--3-3-333--7-7-777-----|
---------------------------------------------------------------------------|
R
R
-------------------------------------------------------------------------|
-------------------------------------------------------------------------|
--------5-5-555------------------------------5-5-555---------------------|
3-3-333-7-7-777-5-5-555--8--8--8-8-8-3-3-333-7-7-777-5-5-555--8--8--8-8-8|
5-5-555---------7-7-777-10-10-101010-5-5-555---------7-7-777-10-10-101010|
-------------------------------------------------------------------------|


L
-----------------------------------------------------------------------|
-----------------------------------------------------------------------|
-----------------------------------------------------------------------|
-3-3-333--0-0-000--2-2-222--5-5-555--3-3-333--0-0-000--2-2-222--5-5-555|
-5-5-555--1-1-111--3-3-333--7-7-777--5-5-555--1-1-111--3-3-333--7-7-777|
-----------------------------------------------------------------------|
R
-------------------------------------------------------------------------|
-------------------------------------------------------------------------|
--------5-5-555------------------------------5-5-555---------------------|
3-3-333-7-7-777-5-5-555--8--8--8-8-8-3-3-333-7-7-777-5-5-555--8--8--8-8-8|
5-5-555---------7-7-777-10-10-101010-5-5-555---------7-7-777-10-10-101010|
-------------------------------------------------------------------------|



-------------------------------------------------------------------|
-------------------------------------------------------------------|
-------------------------------------------------------------------|
-------------------------------------------------------------------|
-1-----------------1-------3-----1-----------------3-------2-------|
---4-1-0-0-0-0-0-0--4-1-3----1-3---4-1-0-0-0-0-0-0---0-6-0---0-5-0-|
         * * * * *                       * * * * *   *   *   *   *

-------------------------------------------------------------------|
-------------------------------------------------------------------|
-------------------------------------------------------------------|
-------------------------------------------------------------------|
-1-----------------1-------3-----1-----------------3-------2-------|
---4-1-0-0-0-0-0-0--4-1-3----1-3---4-1-0-0-0-0-0-0---0-6-0---0-5---|
         * * * * *                       * * * * *   *   *   *   

L
-----------------------------------------------------------|
-----------------------------------------------------------|
------------------------------------------------PH---------|
--1---1---1-------1---1---1-------1---1---1----------------|
--3---3---3-------3---3---3-------3---3---3-------)--------|
0---0---0---0-0-0---0---0---00000---0---0---0-0--3---------|
*   *   *   * * *   *   *   *****   *   *   * *  

R
---------------------------------------------------------------|
---------------------------------------------------------------|
---------------------------------------------------------------|
---------------------------------------------------------------|
--3---3---3-------3---3---3-------3---3---3-------------PH~~~--|
0-6-0-6-0-6-0-0-0-6-0-6-0-6-00000-6-0-6-0-6-0-0---------3------|
*   *   *   * * *   *   *   *****   *   *   * *  




-------------------------------------------------------------|
-------------------------------------------------------------|
-------------------------------------------------------------|
-------------------------------------------------------------|
---1--------------3-------1---------------3------------------|
-0---4-1-0------3---4-3-0---4-1-0-0-0-0-0---0-6-0-555--------|
 *              *       *         * * * *    *   *     

-------------------------------------------------------------|
-------------------------------------------------------------|
-------------------------------------------------------------|
-------------------------------------------------------------|
---1--------------3-------1---------------3------------------|
-0---4-1-0------3---4-3-0---4-1-0-0-0-0-0---0-6-0-555--------|
 *              *       *         * * * *   *   * 

---------------------------------------------------------------|
-----------LLLLLLLL--------------------------------------------|
---------------------------------------------------------------|
---------------------------------------------------------------|
---1------------------3-------1---------------3----------------|
-0---4-1-0-0-0-0-0--3---4-3-0---4-1-0-0-0-0-0---0-6-0-555------|
 *         * * * *  *       *         * * * *   *   * 

---------------------------------------------------------|
---------------------------------------------------------|
---------------------------------------------------------|
--------------------------------------------------222----|
---1--------------3-------1---------------4---3---333----|
-0---4-1-0------3---4-3-0---4-1-0-0-0-0-0---0---0--------|
 *              *       *         * * * *   *   * 

L
-----------------------------------------------------------------------|
-----------------------------------------------------------------------|
-----------------------------------------------------------------------|
-3-3-333--0-0-000--2-2-222--5-5-555--3-3-333--0-0-000--2-2-222--5-5-555|
-5-5-555--1-1-111--3-3-333--7-7-777--5-5-555--1-1-111--3-3-333--7-7-777|
-----------------------------------------------------------------------|
R
-------------------------------------------------------------------------|
-------------------------------------------------------------------------|
--------5-5-555------------------------------5-5-555---------------------|
3-3-333-7-7-777-5-5-555--8--8--8-8-8-3-3-333-7-7-777-5-5-555--8--8--8-8-8|
5-5-555---------7-7-777-10-10-101010-5-5-555---------7-7-777-10-10-101010|
-------------------------------------------------------------------------|

L
-----------------------------------------------------------------------|
-----------------------------------------------------------------------|
-----------------------------------------------------------------------|
-3-3-333--0-0-000--2-2-222--5-5-555--3-3-333--0-0-000--2-2-222--5-5-555|
-5-5-555--1-1-111--3-3-333--7-7-777--5-5-555--1-1-111--3-3-333--7-7-777|
-----------------------------------------------------------------------|
R
-------------------------------------------------------------------------|
-------------------------------------------------------------------------|
--------5-5-555------------------------------5-5-555---------------------|
3-3-333-7-7-777-5-5-555--8--8--8-8-8-3-3-333-7-7-777-5-5-555--8--8--8-8-8|
5-5-555---------7-7-777-10-10-101010-5-5-555---------7-7-777-10-10-101010|
-------------------------------------------------------------------------|



R
--------------------------------------------------------|
--------------------------------------------------------|
--------------------------------------------------------|
--------------------------------------------------------|
---8-5-------8-5---------------8-5-------8-5------------|
------0-0-0-0---0-0-0-0-0-0-0-0---0-0-0-0---0-0-000-0---|
      *   * *   *   * * * * * *   *   * *   *   ***    
L
---------------------------------------------------------|
---------------------------------------------------------|
---------------------------------------------------------|
---------------------------------------------------------|
--0--------------------------------------------------\---|
--0----------------------------------------------000-\---|
                                                 ***

R
-------------------------------------------------|
-------------------------------------------------|
-------------------------------------------------|
-------------------------------------------------|
---8-5-------8-5---------------8-5-------8-5-----|
------0-0-0-0---0-0-0-0-0-0-0-0---0-0-0-0---0----|
      *   * *   *   * * * * * *   *   * *   *      
L
---------------------------------------------------------------|
---------------------------------------------------------------|
---------------------------------------------------------------|
---------------------------------------------------------------|
--0---------------------------------------------000-000-000-000|
--0---------------------------------------------111-111-111-111|
                                                


-----------------------------------------------------------------|
-----------------------------------------------------------------|
-----------------------------------------------------------------|
-----------------------------------------------------------------|
-000000000-----000000000-----0-1-0-3-4-3-1--00000-0-00---000-000-|
-000000000-----000000000-----0-1-0-3-4-3-1--00000-0-00---111-111-|
 *********     *********     * * * * * * *  ***** * **   *** ***

------------------------------------------------------|
------------------------------------------------------|
------------------------------------------------------|
------------------------------------------------------|
----000000000-----0-1-0-3-4-3-1--00000-0-00---000-000-|
----000000000-----0-1-0-3-4-3-1--00000-0-00---111-111-|
    *********     * * * * * * *  ***** * **   *** ***

------------------------------------------------------|
------------------------------------------------------|
------------------------------------------------------|
------------------------------------------------------|
----000000000-----0-1-0-3-4-3-1--00000-0-00---000-000-|
----000000000-----0-1-0-3-4-3-1--00000-0-00---111-111-|
    ********      * * * * * * *  ***** * **   *** ***

------------------------------------------------------|
------------------------------------------------------|
------------------------------------------------------|
------------------------------------------------------|
----000000000-----0-1-0-3-4-3-1--00000-0-00---000-000-|
----000000000-----0-1-0-3-4-3-1--00000-0-00---111-111-|
    ********      * * * * * * *  ***** * **   *** ***
comments
We did not receive enough feedback on this tab! Please rate:
print report bad tab
1 2 3 4 5
I want to post or [tab]
guest
You may want to rate the tab now too:
select rating
Please do not post tabs as comments. Select "correction" instead!