Oops, an error
Loading. Please wait.

Engine 45 Bass Tab

3,466 views 30 this week
1 commentread comment
1 2 3 4 5
excellent!
x 2
Autoscroll
+/-
esc
set tempo
stop
Contributor
Difficulty
Tuning
intermediate
A# F A# D# G C
WARNING: You are trying to view
                                    content from Ultimate-Guitar.com
                                    in an unauthorized application,
                                    which is prohibited.

                                    Please use an official Ultimate
                                    Guitar Tabs application for iPhone,
                                    iPad or Android to access legitimate
                                    chords, guitar, bass, and drum tabs
                                    from Ultimate-Guitar.com database.

                                    Type "ultimate guitar tabs" in Apple
                                    App Store's or Android Market's
                                    search to find the application.
             ^                                                    
              Q               Q    Q    Q       Q    E  Q    Q     
D#||-------|-------|-------|-----------------|--------------------|
A#||-------|-------|-------|-----------------|--------------------|
F#||-------|-------|-------|-----------------|--------------------|
A#||-------|--0----|-------|--0----0----0----|--0----0--0----0----|


  Q    Q    Q    Q       Q    Q    Q    Q       Q    Q    Q     
----------------------|----------------------|-----------------|
----------------------|----------------------|-----------------|
----------------------|----------------------|-----------------|
--0----1----0----0----|--3----0----0----1----|--0----0----0----|


  Q    E  Q    Q       Q    Q    Q    Q       Q    Q    Q    Q     
--------------------|----------------------|----------------------|
--------------------|----------------------|----------------------|
--------------------|----------------------|----------------------|
--0----0--0----0----|--0----3----1----0----|--4----3----1----3----|


  Q    Q    Q       Q    E  Q    Q       Q    Q    Q    Q     
-----------------|--------------------|----------------------|
-----------------|--------------------|----------------------|
-----------------|--------------------|----------------------|
--0----0----0----|--0----0--0----0----|--0----1----0----0----|


  Q    Q    Q    Q       Q    Q    Q       Q    E  Q    Q     
----------------------|-----------------|--------------------|
----------------------|-----------------|--------------------|
----------------------|-----------------|--------------------|
--3----0----0----1----|--0----0----0----|--0----0--0----0----|


  Q    Q    Q    Q       Q    Q    Q    Q       Q             
----------------------|----------------------|-------|-------|
----------------------|----------------------|-------|-------|
----------------------|----------------------|-------|-------|
--0----3----1----0----|--4----3----1----3----|--0----|-------|


  Q    Q    Q    Q       Q    Q    Q    Q       Q    Q    Q    Q     
----------------------|----------------------|----------------------|
----------------------|----------------------|----------------------|
----------------------|----------------------|----------------------|
--0----0----0----0----|--0----0----0----1----|--0----0----0----0----|


  Q    Q    Q    Q       Q    Q    Q    Q       Q    Q    Q    Q       Q     
----------------------|----------------------|----------------------|-------|
----------------------|----------------------|----------------------|-------|
----------------------|----------------------|----------------------|-------|
--0----3----4----3----|--1----0----0----0----|--0----0----0----0----|--0----|


  Q    Q       Q       Q    Q    Q    Q       Q    Q    Q    Q     
------------|-------|----------------------|----------------------|
------------|-------|----------------------|----------------------|
------------|-------|----------------------|----------------------|
--0----0----|--0----|--0----0----0----0----|--0----0----0----1----|


  Q    Q    Q    Q       Q    Q    Q    Q       Q    Q    Q    Q     
----------------------|----------------------|----------------------|
----------------------|----------------------|----------------------|
----------------------|----------------------|----------------------|
--0----0----0----0----|--0----3----4----3----|--1----0----0----0----|


  Q    Q    Q    Q       Q     Q     Q     Q        Q     Q     Q     Q     
----------------------|-------------------------|--------------------------|
----------------------|-------------------------|--------------------------|
----------------------|-------------------------|--------------------------|
--0----0----0----0----|--0----12----12----12----|--12----12----12----12----|


  Q    Q    Q    Q       Q    Q    Q    Q       Q    Q    Q    Q     
----------------------|----------------------|----------------------|
----------------------|----------------------|----------------------|
----------------------|----------------------|----------------------|
--5----5----5----5----|--5----5----5----5----|--5----5----5----5----|


  Q    Q    Q    Q       Q    Q    Q    Q       Q    Q    Q    Q     
----------------------|----------------------|----------------------|
----------------------|----------------------|----------------------|
----------------------|----------------------|----------------------|
--5----3----3----3----|--1----1----1----1----|--1----1----1----1----|


  Q    Q    Q    Q       Q    Q    Q    Q       Q    Q    Q    Q     
----------------------|----------------------|----------------------|
----------------------|----------------------|----------------------|
----------------------|----------------------|----------------------|
--1----1----1----1----|--1----1----1----1----|--8----8----8----8----|


  Q    Q    Q    Q       Q    Q    Q    Q       Q    Q    Q    Q     
----------------------|----------------------|----------------------|
----------------------|----------------------|----------------------|
----------------------|----------------------|----------------------|
--8----8----8----8----|--8----8----8----8----|--8----8----8----8----|


  Q    Q    Q    Q       Q    Q    Q    Q       Q    Q    Q    Q     
----------------------|----------------------|----------------------|
----------------------|----------------------|----------------------|
----------------------|----------------------|----------------------|
--3----3----3----3----|--3----3----3----3----|--3----3----3----3----|


  Q    Q    Q    Q       Q    E  E  E  E  E  E     E  E  E  E  E  E  E  E   
----------------------|-------------------------|--------------------------|
----------------------|-------------------------|--------------------------|
----------------------|-------------------------|--------------------------|
--3----3----3----3----|--0----0--0--0--0--0--0--|--0--0--0--0--0--0--1--0--|


  E  Q    E  E  E  E  E     E  Q    Q    Q       Q    Q    E  E  E  E   
-------------------------|--------------------|------------------------|
-------------------------|--------------------|------------------------|
-------------------------|--------------------|------------------------|
--0--0----0--0--0--0--0--|--0--3----4----3----|--1----0----0--0--0--0--|


  E  E  E  E  E  E  E     E  E     E  E  E  E     E  E  Q    E  E  E  E   
-----------------------|--------|--------------|-------------------------|
-----------------------|--------|--------------|-------------------------|
-----------------------|--------|--------------|-------------------------|
--0--0--0--0--0--0--0--|--0--0--|--0--0--0--0--|--0--0--0----0--0--0--0--|


  E  E  E  E  E  E  E  E     E  E  E  Q    E  E  E     E  E  E  E  Q    Q     
--------------------------|-------------------------|------------------------|
--------------------------|-------------------------|------------------------|
--------------------------|-------------------------|------------------------|
--0--0--0--0--0--0--0--0--|--1--0--0--0----0--0--0--|--0--0--0--0--3----4----|


  Q    Q    Q    E  E     E  E  E  E  E  E  E  E     E  E  E     E  E  E  E   
-----------------------|--------------------------|-----------|--------------|
-----------------------|--------------------------|-----------|--------------|
-----------------------|--------------------------|-----------|--------------|
--3----1----0----0--0--|--0--0--0--0--0--0--0--0--|--0--0--0--|--0--0--0--0--|


  E  Q       Q    Q    Q    Q       Q    Q    Q    Q       Q    Q    Q    Q     
----------|----------------------|----------------------|----------------------|
----------|----------------------|----------------------|----------------------|
----------|----------------------|----------------------|----------------------|
--0--0----|--0----0----0----0----|--0----0----0----1----|--0----0----0----0----|


  Q    Q    Q    Q       Q    Q    Q    Q       Q    Q    Q    Q       Q     
----------------------|----------------------|----------------------|-------|
----------------------|----------------------|----------------------|-------|
----------------------|----------------------|----------------------|-------|
--0----3----4----3----|--1----0----0----0----|--0----0----0----0----|--0----|


  Q    Q       Q    Q    Q    Q       Q    Q    Q       Q    Q    Q    Q     
------------|----------------------|-----------------|----------------------|
------------|----------------------|-----------------|----------------------|
------------|----------------------|-----------------|----------------------|
--0----0----|--0----0----0----0----|--0----0----0----|--1----0----0----0----|


  Q    Q    Q    Q       Q    Q    Q    Q       Q    Q    Q    Q     
----------------------|----------------------|----------------------|
----------------------|----------------------|----------------------|
----------------------|----------------------|----------------------|
--0----0----3----4----|--3----1----0----0----|--0----0----0----0----|


  Q    Q     Q     Q        Q     Q     Q     Q        Q    Q    Q    Q     
------------------------|--------------------------|-----------------------|
------------------------|--------------------------|-----------------------|
------------------------|--------------------------|-----------------------|
--0----0----12----12----|--12----12----12----12----|--12----5----5----5----|


  Q    Q    Q    Q       Q    Q    Q    Q       Q    Q    Q    Q     
----------------------|----------------------|----------------------|
----------------------|----------------------|----------------------|
----------------------|----------------------|----------------------|
--5----5----5----5----|--5----5----5----5----|--5----5----3----3----|


  Q    Q    Q    Q       Q    Q    Q    Q       Q    Q    Q    Q     
----------------------|----------------------|----------------------|
----------------------|----------------------|----------------------|
----------------------|----------------------|----------------------|
--3----1----1----1----|--1----1----1----1----|--1----1----1----1----|


  Q    Q    Q    Q       Q    Q    Q    Q       Q    Q    Q    Q     
----------------------|----------------------|----------------------|
----------------------|----------------------|----------------------|
----------------------|----------------------|----------------------|
--1----1----1----1----|--1----8----8----8----|--8----8----8----8----|


  Q    Q    Q    Q       Q    Q    Q    Q       Q    Q    Q    Q     
----------------------|----------------------|----------------------|
----------------------|----------------------|----------------------|
----------------------|----------------------|----------------------|
--8----8----8----8----|--8----8----8----8----|--8----3----3----3----|


  Q    Q    Q    Q       Q    Q    Q    Q       Q    Q    Q    Q     
----------------------|----------------------|----------------------|
----------------------|----------------------|----------------------|
----------------------|----------------------|----------------------|
--3----3----3----3----|--3----3----3----3----|--3----3----3----3----|


  Q    Q    Q    Q       Q    Q    Q    Q       Q    Q    Q    Q     
----------------------|----------------------|----------------------|
----------------------|----------------------|----------------------|
----------------------|----------------------|----------------------|
--3----5----5----5----|--5----5----5----5----|--5----5----5----5----|


  Q    Q    Q    Q       Q    Q    Q    Q       Q    Q    Q    Q     
----------------------|----------------------|----------------------|
----------------------|----------------------|----------------------|
----------------------|----------------------|----------------------|
--5----5----3----3----|--3----1----1----1----|--1----1----1----1----|


  Q    Q    Q    Q       Q    Q    Q    Q       Q    Q    Q    Q     
----------------------|----------------------|----------------------|
----------------------|----------------------|----------------------|
----------------------|----------------------|----------------------|
--1----1----1----1----|--1----1----1----1----|--1----8----8----8----|


  Q    Q    Q    Q       Q    Q    Q    Q       Q    Q    Q    Q     
----------------------|----------------------|----------------------|
----------------------|----------------------|----------------------|
----------------------|----------------------|----------------------|
--8----8----8----8----|--8----8----8----8----|--8----8----8----8----|


  Q    Q    Q    Q       Q    Q    Q    Q       Q    Q    Q    Q     
----------------------|----------------------|----------------------|
----------------------|----------------------|----------------------|
----------------------|----------------------|----------------------|
--8----3----3----3----|--3----3----3----3----|--3----3----3----3----|


  Q    Q    Q    Q       Q    Q    Q                         
----------------------|-----------------|-------|-----------|
----------------------|-----------------|-------|-----------|
----------------------|-----------------|-------|-----------|
--3----3----3----3----|--3----0----0----|-------|-----------|


  Q    Q    Q    Q       Q    Q    Q                         
----------------------|-----------------|-------|-----------|
----------------------|-----------------|-------|-----------|
----------------------|-----------------|-------|-----------|
--0----0----0----0----|--0----0----0----|-------|-----------|


  Q    Q    Q    Q       Q    Q    Q                             
----------------------|-----------------|-------|-------|-------|
----------------------|-----------------|-------|-------|-------|
----------------------|-----------------|-------|-------|-------|
--0----0----0----0----|--0----0----0----|-------|-------|-------|


  Q    Q    Q    Q       Q    Q    Q    Q                       Q    Q     
----------------------|----------------------|-------|-------|------------|
----------------------|----------------------|-------|-------|------------|
----------------------|----------------------|-------|-------|------------|
--0----0----0----0----|--0----0----0----0----|-------|-------|--0----0----|


  Q    Q               E  E  Q    Q    E  E     Q    Q       Q    Q             
------------|-------|------------------------|------------|------------|-------|
------------|-------|------------------------|------------|------------|-------|
------------|-------|------------------------|------------|------------|-------|
--0----0----|-------|--0--0--0----0----0--0--|--0----0----|--0----0----|-------|


  E  E  Q    Q    E  E     Q    Q    E  E  Q       Q    Q    E  Q     
------------------------|-----------------------|--------------------|
------------------------|-----------------------|--------------------|
------------------------|-----------------------|--------------------|
--0--0--0----0----0--0--|--0----0----0--0--0----|--0----0----0--0----|


              E  E  E  E  Q    Q       Q    E  E  E     Q    Q    E  E  Q     
-----------|------------------------|----------------|-----------------------|
-----------|------------------------|----------------|-----------------------|
-----------|------------------------|----------------|-----------------------|
-----------|--------0--0--0----0----|--0----0--0--0--|--0----0----0--0--0----|


  Q    Q    E  E  Q                       Q                                     
-----------------------|-------|-------|-------|-------|-------|-------|-------|
-----------------------|-------|-------|-------|-------|-------|-------|-------|
-----------------------|-------|-------|-------|-------|-------|-------|-------|
--0----0----0--0--0----|-------|-------|--0----|-------|-------|-------|-------|


-------|-------|-------|-------|-------|-------|-------|-------|-------|-------|
-------|-------|-------|-------|-------|-------|-------|-------|-------|-------|
-------|-------|-------|-------|-------|-------|-------|-------|-------|-------|
-------|-------|-------|-------|-------|-------|-------|-------|-------|-------|


-------|-------|-------|-------|-------|-------|-------|-------|-------|-------|
-------|-------|-------|-------|-------|-------|-------|-------|-------|-------|
-------|-------|-------|-------|-------|-------|-------|-------|-------|-------|
-------|-------|-------|-------|-------|-------|-------|-------|-------|-------|


-------|-------|-------|-------|-------|-------|-------|-------|-------|-------|
-------|-------|-------|-------|-------|-------|-------|-------|-------|-------|
-------|-------|-------|-------|-------|-------|-------|-------|-------|-------|
-------|-------|-------|-------|-------|-------|-------|-------|-------|-------|


-------|-------|-------|-------|-------|-------|-------|-------|-------|
-------|-------|-------|-------|-------|-------|-------|-------|-------|
-------|-------|-------|-------|-------|-------|-------|-------|-------|
-------|-------|-------|-------|-------|-------|-------|-------|-------|


  Q    Q    Q    Q       Q    Q    Q    Q       Q    Q    Q    Q     
----------------------|----------------------|----------------------|
----------------------|----------------------|----------------------|
----------------------|----------------------|----------------------|
--0----0----0----0----|--0----0----0----0----|--0----0----0----0----|


  Q    Q    Q    Q       Q    Q    Q    Q       Q    Q    Q    Q     
----------------------|----------------------|----------------------|
----------------------|----------------------|----------------------|
----------------------|----------------------|----------------------|
--0----0----0----0----|--8----8----8----8----|--8----8----8----8----|


  Q     Q     Q     Q        Q     Q     Q     Q       Q    Q    Q    Q     
-------------------------|--------------------------|----------------------|
-------------------------|--------------------------|----------------------|
-------------------------|--------------------------|----------------------|
--8----10----10----10----|--10----10----10----10----|--0----0----0----0----|


  Q    Q    Q    Q       Q    Q    Q    Q       Q    Q    Q    Q     
----------------------|----------------------|----------------------|
----------------------|----------------------|----------------------|
----------------------|----------------------|----------------------|
--0----0----0----0----|--0----0----0----0----|--0----0----0----0----|


  Q    Q    Q    Q       Q    Q    Q    Q       Q    Q    Q    Q     
----------------------|----------------------|----------------------|
----------------------|----------------------|----------------------|
----------------------|----------------------|----------------------|
--3----3----3----3----|--3----3----3----3----|--3----5----5----5----|


  Q    Q    Q    Q       Q    Q    Q    Q       Q    Q    Q    Q     
----------------------|----------------------|----------------------|
----------------------|----------------------|----------------------|
----------------------|----------------------|----------------------|
--5----5----5----5----|--0----0----0----0----|--0----0----0----0----|


  Q    Q    Q    Q       Q    Q    Q    Q       Q    Q    Q    Q     
----------------------|----------------------|----------------------|
----------------------|----------------------|----------------------|
----------------------|----------------------|----------------------|
--0----0----0----0----|--0----0----0----0----|--8----8----8----8----|


  Q    Q    Q    Q       Q     Q     Q     Q        Q     Q     Q     Q     
----------------------|-------------------------|--------------------------|
----------------------|-------------------------|--------------------------|
----------------------|-------------------------|--------------------------|
--8----8----8----8----|--8----10----10----10----|--10----10----10----10----|


  Q    Q    Q    Q       Q    Q    Q    Q       Q    Q    Q    Q     
----------------------|----------------------|----------------------|
----------------------|----------------------|----------------------|
----------------------|----------------------|----------------------|
--0----0----0----0----|--0----0----0----0----|--0----0----0----0----|


  Q    Q    Q    Q       Q    Q    Q    Q       Q    Q    Q    Q     
----------------------|----------------------|----------------------|
----------------------|----------------------|----------------------|
----------------------|----------------------|----------------------|
--0----0----0----0----|--3----3----3----3----|--3----3----3----3----|


  Q    Q    Q    Q       Q    Q    Q    Q       Q    Q    Q    Q     
----------------------|----------------------|----------------------|
----------------------|----------------------|----------------------|
----------------------|----------------------|----------------------|
--3----5----5----5----|--5----5----5----5----|--0----0----0----0----|


  Q    Q    Q    Q       Q    Q    Q    Q       Q    Q    Q    Q     
----------------------|----------------------|----------------------|
----------------------|----------------------|----------------------|
----------------------|----------------------|----------------------|
--0----0----0----0----|--0----0----0----0----|--0----0----0----0----|


  Q    Q    Q    Q       Q    Q    Q    Q       Q     Q     Q     Q     
----------------------|----------------------|-------------------------|
----------------------|----------------------|-------------------------|
----------------------|----------------------|-------------------------|
--8----8----8----8----|--8----8----8----8----|--8----10----10----10----|


   Q     Q     Q     Q       Q    Q    Q    Q       Q    Q    Q    Q     
--------------------------|----------------------|----------------------|
--------------------------|----------------------|----------------------|
--------------------------|----------------------|----------------------|
--10----10----10----10----|--0----0----0----0----|--0----0----0----0----|


  Q    Q    Q    Q       Q    Q    Q    Q       Q    Q    Q    Q     
----------------------|----------------------|----------------------|
----------------------|----------------------|----------------------|
----------------------|----------------------|----------------------|
--0----0----0----0----|--0----0----0----0----|--3----3----3----3----|


  Q    Q    Q    Q       Q    Q    Q    Q       Q    Q    Q    Q     
----------------------|----------------------|----------------------|
----------------------|----------------------|----------------------|
----------------------|----------------------|----------------------|
--3----3----3----3----|--3----5----5----5----|--5----5----5----5----|


  Q    Q    Q    Q       Q    Q    Q    Q       Q    Q    Q    Q     
----------------------|----------------------|----------------------|
----------------------|----------------------|----------------------|
----------------------|----------------------|----------------------|
--0----0----0----0----|--0----0----0----0----|--0----0----0----0----|


  Q    Q    Q    Q       Q    Q    Q    Q       Q    Q    Q    Q     
----------------------|----------------------|----------------------|
----------------------|----------------------|----------------------|
----------------------|----------------------|----------------------|
--0----0----0----0----|--8----8----8----8----|--8----8----8----8----|


  Q     Q     Q     Q        Q     Q     Q     Q       Q    Q    Q    Q     
-------------------------|--------------------------|----------------------|
-------------------------|--------------------------|----------------------|
-------------------------|--------------------------|----------------------|
--8----10----10----10----|--10----10----10----10----|--0----0----0----0----|


  Q    Q    Q    Q       Q    Q    Q    Q       Q    Q    Q    Q     
----------------------|----------------------|----------------------|
----------------------|----------------------|----------------------|
----------------------|----------------------|----------------------|
--0----0----0----0----|--0----0----0----0----|--0----0----0----0----|


  Q    Q    Q    Q       Q    Q    Q    Q       Q    Q    Q    Q     
----------------------|----------------------|----------------------|
----------------------|----------------------|----------------------|
----------------------|----------------------|----------------------|
--3----3----3----3----|--3----3----3----3----|--3----5----5----5----|


  Q    Q    Q    Q       Q      
----------------------|-------||
----------------------|-------||
----------------------|-------||
--5----5----5----5----|--0----||

comments
We did not receive enough feedback on this tab! Please rate:
1 2 3 4 5
1 comment total.
0 reply
Geordyisawesome wrote on May 6 2013, 04:56 am

tuning is A# F A# D# low to high

I want to post or [tab]
guest
You may want to rate the tab now too:
select rating
Please do not post tabs as comments. Select "correction" instead!