Oops, an error
Loading. Please wait.

Face Value Tab

ver1
ver1

Whole song

Interactive

More versions @911Tabs.com
962 views 6 this week
no commentswrite comment
1 2 3 4 5
accurate
x 1
Autoscroll
+/-
esc
set tempo
stop
Contributor
Tuning
A# F A# D# G C
Hey! There's an official Ultimate Guitar app which is ideal
for learning songs when you're away from computer. Get the app
WARNING: You are trying to view
                                    content from Ultimate-Guitar.com
                                    in an unauthorized application,
                                    which is prohibited.

                                    Please use an official Ultimate
                                    Guitar Tabs application for iPhone,
                                    iPad or Android to access legitimate
                                    chords, guitar, bass, and drum tabs
                                    from Ultimate-Guitar.com database.

                                    Type "ultimate guitar tabs" in Apple
                                    App Store's or Android Market's
                                    search to find the application.
Song: Face Value
Artist: The Ghost Inside
Album: Get What You Give
Year: 2012
Tuning: Drop A#

Guitar 1
Intro – 0:01
C ||--------------------------|--------------------------|
G ||--------------------------|--------------------------|
D#||--7--7--7--7--7--7--7--7--|--7--8--8--8--8--5--5--5--|
A#||--x--x--x--x--x--x--x--x--|--x--x--x--x--x--x--x--x--|
F ||--5--5--5--5--5--5--5--5--|--5--6--6--6--6--3--3--3--|
A#||--------------------------|--------------------------|

--------------------------|------------------------------|
--------------------------|------------------------------|      X4
--5--7--7--7--7--7--7--7--|--7--10--10--10--10--8--8--8--|
--x--x--x--x--x--x--x--x--|--x---x---x---x---x--x--x--x--|
--3--5--5--5--5--5--5--5--|--5---8---8---8---8--6--6--6--|
--------------------------|------------------------------|

Guitar 2
Intro – 0:01
----------------------------------|----------------------------------|
----------------------------------|----------------------------------|  X8
--12--12--12--12--12--12--12--12--|--12--12--12--12--12--12--12--12--|
---x---x---x---x---x---x---x---x--|---x---x---x---x---x---x---x---x--|
--10--10--10--10--10--10--10--10--|--10--10--10--10--10--10--10--10--|
----------------------------------|----------------------------------|



Both Guitars
Verse – 0:20
-----------------------------|--------------------------|
-----------------------------|--------------------------|
-----------------------------|--------------------------|
-----------------------------|--------------------------|
-----------------------------|--------------0--0--0--0--|
--12--12--12--8--8--8--5--5--|--5--3--3--3--0--0--0--0--|
                                            PM PM PM
--------------------------|--------------------------|
--------------------------|--------------------------|
--------------------------|--------------------------|
--------------------------|--------------------------|
-----0--0--0--0--0--0--0--|--1--0--3--0--1--3--0--0--|
-----0--0--0--0--0--0--0--|--1--0--3--0--1--3--0--0--|
     PM PM PM PM PM PM PM       PM    PM       PM PM
-----------------------------|--------------------------|
-----------------------------|--------------------------|
-----------------------------|--------------------------|
-----------------------------|--------------------------|
-----------------------------|-----------------------0--|
--12--12--12--8--8--8--5--5--|--5--3--3--3--7--7--7--0--|

--------------------------|--------------------------|
--------------------------|--------------------------|
--------------------------|--------------------------|
--------------------------|--------------------------|
-----0--0--0--0--0--0--0--|--1--0--3--0--3--5--0--0--|
-----0--0--0--0--0--0--0--|--1--0--3--0--3--5--0--0--|
     PM PM PM PM PM PM PM       PM    PM       PM PM

-----------------------------|--------------------------|
-----------------------------|--------------------------|
-----------------------------|--------------------------|
-----------------------------|--------------------------|
-----------------------------|-----------------------0--|
--12--12--12--8--8--8--5--5--|--5--3--3--3--7--7--7--0--|

--------------------------|--------------------------|
--------------------------|--------------------------|
--------------------------|--------------------------|
--------------------------|--------------------------|
-----0--0--0--0--0--0--0--|--1--0--3--0--1--3--0--0--|
-----0--0--0--0--0--0--0--|--1--0--3--0--1--3--0--0--|
     PM PM PM PM PM PM PM       PM    PM       PM PM
-----------------------------|--------------------------|
-----------------------------|--------------------------|
-----------------------------|--------------------------|
-----------------------------|--------------------------|
-----------------------------|-----------------------0--|
--12--12--12--8--8--8--5--5--|--5--3--3--3--7--7--7--0--|

--------------------------|--------------------------|
--------------------------|--------------------------|
--------------------------|--------------------------|
--------------------------|--------------------------|
-----0--0--0--0--0--0--0--|--1--0--3--0--3--5--0--0--|
-----0--0--0--0--0--0--0--|--1--0--3--0--3--5--0--0--|
     PM PM PM PM PM PM PM       PM    PM       PM PM





Both Guitars
Pre Chorus – 0:41
--------------------------|--------------------------|
--------------------------|--------------------------|
--------------------------|--------------------------|
--------------------------|--------------------------|
--1--0--0--0--0--0--1--0--|--0--0--0--0--3--4--4--4--|
--1--0--0--0--0--0--1--0--|--0--0--0--0--3--4--4--4--|
     PM PM    PM PM    PM    PM    PM PM
--------------------------|--------------------------|
--------------------------|--------------------------|
--------------------------|--------------------------|
--------------------------|--------------------------|
--1--0--0--0--0--0--1--0--|--0--0--0--0--3--1--1--1--|
--1--0--0--0--0--0--1--0--|--0--0--0--0--3--1--1--1--|
     PM PM    PM PM    PM    PM    PM PM
--------------------------|--------------------------|
--------------------------|--------------------------|
--------------------------|--------------------------|
--------------------------|--------------------------|
--1--0--0--0--0--0--1--0--|--0--0--0--0--3--4--4--4--|
--1--0--0--0--0--0--1--0--|--0--0--0--0--3--4--4--4--|
     PM PM    PM PM    PM    PM    PM PM
--------------------------|--------------------------|
--------------------------|--------------------------|
--------------------------|--------------------------|
--------------------------|--------------------------|
--1--0--0--0--0--0--1--0--|--0--0--0--0--0--0--0--1--|
--1--0--0--0--0--0--1--0--|--0--0--0--0--0--0--0--1--|
     PM PM    PM PM    PM    PM    PM PM PM PM PM



Guitar 1
Chorus – 0:51
--------------------------|--------------------------|
--------------------------|--------------------------|
--------------------------|--------------------------|
--------------------------|--------------------------|
-----1--1--1--1--1--1--1--|--1--1--1--1--3--3--3--5--|
-----1--1--1--1--1--1--1--|--1--1--1--1--3--3--3--5--|

--------------------------|--------------------------|
--------------------------|--------------------------|
--------------------------|--------------------------|
--------------------------|--------------------------|
-----5--5--5--5--5--5--5--|--5--5--5--5--8--8--8--3--|
-----5--5--5--5--5--5--5--|--5--5--5--5--8--8--8--3--|

--------------------------|--------------------------|
--------------------------|--------------------------|
--------------------------|--------------------------|
--------------------------|--------------------------|
-----3--3--3--3--3--3--3--|--3--3--3--3--5--5--5--1--|
-----3--3--3--3--3--3--3--|--3--3--3--3--5--5--5--1--|

--------------------------|--------------------------|
--------------------------|--------------------------|  X2
--------------------------|--------------------------|
--------------------------|--------------------------|
-----0--0--0--0--0--0--0--|--1--0--3--0--3--1--0--1--|
-----0--0--0--0--0--0--0--|--1--0--3--0--3--1--0--1--|
        PM PM PM PM PM PM       PM    PM       PM



Guitar 2
Chorus – 0:51
---------------------------------|----------------------------------|
---------------------------------|----------------------------------|
-----12--12--12--12--12--12--12--|--12--12--12--12--14--14--14--15--|
------x---x---x---x---x---x---x--|---x---x---x---x---x---x---x---x--|
-----10--10--10--10--10--10--10--|--10--10--10--10--12--12--12--13--|
---------------------------------|----------------------------------|

---------------------------------|----------------------------------|
---------------------------------|----------------------------------|
-----15--15--15--15--15--15--15--|--14--14--14--14--14--14--14--10--|
------x---x---x---x---x---x---x--|---x---x---x---x---x---x---x---x--|
-----13--13--13--13--13--13--13--|--12--12--12--12--12--12--12---8--|
---------------------------------|----------------------------------|

---------------------------------|---------------------------------|
---------------------------------|---------------------------------|
-----10--10--10--10--10--10--10--|--10--10--10--10--12--12--12-----|
------x---x---x---x---x---x---x--|---x---x---x---x---x---x---x-----|
------8---8---8---8---8---8---8--|---8---8---8---8--10--10--10--1--|
---------------------------------|------------------------------1--|

--------------------------|---------------------------|
--------------------------|---------------------------|
--------------------------|-----------------------12--|
--------------------------|------------------------x--|
-----0--0--0--0--0--0--0--|--1--0--3--0--3--1--0--10--| X2
-----0--0--0--0--0--0--0--|--1--0--3--0--3--1--0------|
        PM PM PM PM PM PM       PM    PM       PM


Both Guitars
1:12
--------------------------|-------------------------|
--------------------------|-------------------------|
--------------------------|-------------------------|
--------------------------|-------------------------|
-----0--0--0--0--0--0--0--|--1--0--3--0--3--1-------|
-----0--0--0--0--0--0--0--|--1--0--3--0--3--1-------|
        PM PM PM PM PM PM       PM    PM



Both Guitars
  Verse – 1:15
--------------------------|--------------------------|
--------------------------|--------------------------|
--7--7--7--7--7--7--7--7--|--7--7--7--7--7--7--7--7--|
--x--x--x--x--x--x--x--x--|--x--x--x--x--x--x--x--x--|
--5--5--5--5--5--5--5--5--|--5--5--5--5--5--5--5--5--|
--------------------------|--------------------------|

--------------------------|--------------------------|
--------------------------|--------------------------|
--3--3--3--3--3--3--3--3--|--3--3--3--3--3--3--3--3--|
--x--x--x--x--x--x--x--x--|--x--x--x--x--x--x--x--x--|
--1--1--1--1--1--1--1--1--|--1--1--1--1--1--1--1--1--|
--------------------------|--------------------------|

--------------------------|--------------------------|
--------------------------|--------------------------|
--5--5--5--5--5--5--5--5--|--5--5--5--5--5--5--5--5--|
--x--x--x--x--x--x--x--x--|--x--x--x--x--x--x--x--x--|
--3--3--3--3--3--3--3--3--|--3--3--3--3--3--3--3--3--|
--------------------------|--------------------------|

----------------------------------|--------------------------|
----------------------------------|--------------------------|  X2
--10--10--10--10--10--10--10--10--|--8--8--8--8--8--8--8--8--|
---x---x---x---x---x---x---x---x--|--x--x--x--x--x--x--x--x--|
---8---8---8---8---8---8---8---8--|--6--6--6--6--6--6--6--6--|
----------------------------------|--------------------------|




Both Guitars
Pre Chorus – 1:36
--------------------------|--------------------------|
--------------------------|--------------------------|
--------------------------|--------------------------|
--------------------------|--------------------------|
--1--0--0--0--0--0--1--0--|--0--0--0--0--3--4--4--4--|
--1--0--0--0--0--0--1--0--|--0--0--0--0--3--4--4--4--|
     PM PM    PM PM    PM    PM    PM PM
--------------------------|--------------------------|
--------------------------|--------------------------|
--------------------------|--------------------------|
--------------------------|--------------------------|
--1--0--0--0--0--0--1--0--|--0--0--0--0--3--1--1--1--|
--1--0--0--0--0--0--1--0--|--0--0--0--0--3--1--1--1--|
     PM PM    PM PM    PM    PM    PM PM
--------------------------|--------------------------|
--------------------------|--------------------------|
--------------------------|--------------------------|
--------------------------|--------------------------|
--1--0--0--0--0--0--1--0--|--0--0--0--0--3--4--4--4--|
--1--0--0--0--0--0--1--0--|--0--0--0--0--3--4--4--4--|
     PM PM    PM PM    PM    PM    PM PM
--------------------------|--------------------------|
--------------------------|--------------------------|
--------------------------|--------------------------|
--------------------------|--------------------------|
--1--0--0--0--0--0--1--0--|--0--0--0--0--0--0--0--1--|
--1--0--0--0--0--0--1--0--|--0--0--0--0--0--0--0--1--|
     PM PM    PM PM    PM    PM    PM PM PM PM PM



Guitar 1
Chorus – 1:46
--------------------------|--------------------------|
--------------------------|--------------------------|
--------------------------|--------------------------|
--------------------------|--------------------------|
-----1--1--1--1--1--1--1--|--1--1--1--1--3--3--3--5--|
-----1--1--1--1--1--1--1--|--1--1--1--1--3--3--3--5--|

--------------------------|--------------------------|
--------------------------|--------------------------|
--------------------------|--------------------------|
--------------------------|--------------------------|
-----5--5--5--5--5--5--5--|--5--5--5--5--8--8--8--3--|
-----5--5--5--5--5--5--5--|--5--5--5--5--8--8--8--3--|

--------------------------|--------------------------|
--------------------------|--------------------------|
--------------------------|--------------------------|
--------------------------|--------------------------|
-----3--3--3--3--3--3--3--|--3--3--3--3--5--5--5--1--|
-----3--3--3--3--3--3--3--|--3--3--3--3--5--5--5--1--|

--------------------------|--------------------------|
--------------------------|--------------------------|  X2
--------------------------|--------------------------|
--------------------------|--------------------------|
-----0--0--0--0--0--0--0--|--1--0--3--0--3--1--0--1--|
-----0--0--0--0--0--0--0--|--1--0--3--0--3--1--0--1--|
        PM PM PM PM PM PM       PM    PM       PM



Guitar 2
Chorus – 1:46
---------------------------------|----------------------------------|
---------------------------------|----------------------------------|
-----12--12--12--12--12--12--12--|--12--12--12--12--14--14--14--15--|
------x---x---x---x---x---x---x--|---x---x---x---x---x---x---x---x--|
-----10--10--10--10--10--10--10--|--10--10--10--10--12--12--12--13--|
---------------------------------|----------------------------------|

---------------------------------|----------------------------------|
---------------------------------|----------------------------------|
-----15--15--15--15--15--15--15--|--14--14--14--14--14--14--14--10--|
------x---x---x---x---x---x---x--|---x---x---x---x---x---x---x---x--|
-----13--13--13--13--13--13--13--|--12--12--12--12--12--12--12---8--|
---------------------------------|----------------------------------|

---------------------------------|---------------------------------|
---------------------------------|---------------------------------|
-----10--10--10--10--10--10--10--|--10--10--10--10--12--12--12-----|
------x---x---x---x---x---x---x--|---x---x---x---x---x---x---x-----|
------8---8---8---8---8---8---8--|---8---8---8---8--10--10--10--1--|
---------------------------------|------------------------------1--|

--------------------------|---------------------------|
--------------------------|---------------------------|
--------------------------|-----------------------12--|
--------------------------|------------------------x--|
-----0--0--0--0--0--0--0--|--1--0--3--0--3--1--0--10--| X2
-----0--0--0--0--0--0--0--|--1--0--3--0--3--1--0------|
        PM PM PM PM PM PM       PM    PM       PM




Both Guitars
2:06
--------------------------|--------------------------|
--------------------------|--------------------------|  X3
--------------------------|--------------------------|
--------------------------|--------------------------|
-----0--0--0--0--0--0--0--|--1--0--3--0--3--1--0--1--|
-----0--0--0--0--0--0--0--|--1--0--3--0--3--1--0--1--|
        PM PM PM PM PM PM       PM    PM       PM



Guitar 1
Bridge – 2:14
----------------------------------|----------------------------------|
----------------------------------|----------------------------------|
--14--14--14--14--14--14--14--14--|--14--14--14--14--14--14--14--14--|
---x---x---x---x---x---x---x---x--|---x---x---x---x---x---x---x---x--|
--12--12--12--12--12--12--12--12--|--12--12--12--12--12--12--12--12--|
----------------------------------|----------------------------------|

----------------------------------|----------------------------------|
----------------------------------|----------------------------------|
--14--14--14--14--14--14--14--14--|--14--15--15--15--15--12--12--12--|
---x---x---x---x---x---x---x---x--|---x---x---x---x---x---x---x---x--|
--12--12--12--12--12--12--12--12--|--12--13--13--13--13--10--10--10--|
----------------------------------|----------------------------------|

----------------------------------|----------------------------------|
----------------------------------|----------------------------------|
--14--14--14--14--14--14--14--14--|--14--14--14--14--14--14--14--14--|
---x---x---x---x---x---x---x---x--|---x---x---x---x---x---x---x---x--|
--12--12--12--12--12--12--12--12--|--12--12--12--12--12--12--12--12--|
----------------------------------|----------------------------------|

----------------------------------|----------------------------------|
----------------------------------|----------------------------------|  X5
--14--14--14--14--14--14--14--14--|--14--17--17--17--17--15--15--15--|
---x---x---x---x---x---x---x---x--|---x---x---x---x---x---x---x---x--|
--12--12--12--12--12--12--12--12--|--12--15--15--15--15--13--13--13--|
----------------------------------|----------------------------------|




Guitar 2
Bridge – 2:14
----------------------------------|----------------------------------|
----------------------------------|----------------------------------|
----------------------------------|----------------------------------|
----------------------------------|----------------------------------|
--0--0----------------------------|----------------------------------|
--0--0----------------------------|----------------------------------|
  PM PM
----------------------------------|----------------------|
----------------------------------|----------------------|
----------------------------------|----------------------|
----------------------------------|----------------------|
----------------------------------|---------------8-\----|
----------------------------------|---------------8--\---|

----------------------------------|----------------------------------|
----------------------------------|----------------------------------|
----------------------------------|----------------------------------|
----------------------------------|----------------------------------|
--0--0----------------------------|----------------------------------|
--0--0----------------------------|----------------------------------|
  PM PM




Guitar 2
Bridge – 2:25
--------------------------|--------------------------|
--------------------------|--------------------------|  X8
--7--7--7--7--7--7--7--7--|--7--7--7--7--7--7--7--7--|
--x--x--x--x--x--x--x--x--|--x--x--x--x--x--x--x--x--|
--5--5--5--5--5--5--5--5--|--5--5--5--5--5--5--5--5--|
--------------------------|--------------------------|




Guitar 2
Breakdown – 2:46
-----------------------------|-----------------------------|
-----------------------------|-----------------------------|
-----------------------------|-----------------------------|
-----------------------------|-----------------------------|
--0--0--0-----------0--0--0--|--0--0--0--0--1--0--0--0--0--|
--0--0--0-----------0--0--0--|--0--0--0--0--1--0--0--0--0--|
  PM PM PM          PM PM PM    PM PM PM PM    PM    PM
-----------------------------|-----------------------------|
-----------------------------|-----------------------------|    X4
-----------------------------|-----------------------------|
-----------------------------|-----------------------------|
--0--0--0-----------0--0--0--|--0--0--0--0--1--0--3--0--0--|
--0--0--0-----------0--0--0--|--0--0--0--0--1--0--3--0--0--|
  PM PM PM          PM PM PM    PM PM PM PM    PM    PM



Both Guitars
Breakdown – 3:06
-------------------------|------------------------------|
-------------------------|------------------------------|
-------------------------|------------------------------|
-------------------------|--H3-------------H3-----------|
--0--0--0--0-----0-------|-------0--0--0-------0--0--0--|
--0--0--0--0-----0-------|-------0--0--0-------0--0--0--|
  PM PM PM PM    PM              PM PM PM      PM PM PM
-------------------------|------------------------------|
-------------------------|------------------------------|       X2
-------------------------|------------------------------|
-------------------------|------------------------------|
--0--0--0--0-----0-------|-------0--0--0--0-0-0--0-0-0--|
--0--0--0--0-----0-------|-------0--0--0--0-0-0--0-0-0--|
  PM PM PM PM    PM              PM PM PM PMPMPM PMPMPM




Tablature Legend
----------------
PM - palm mute
b - bend
L - tied note
\ - slide down
x - dead note
g - grace note
(n) - ghost note
> - accentuded note
H - harmonic
PH - pitch harmonic
h - hammer on
p - pull off
s - slide
comments
We did not receive enough feedback on this tab! Please rate:
print report bad tab
1 2 3 4 5
I want to post or [tab]
guest
You may want to rate the tab now too:
select rating
Please do not post tabs as comments. Select "correction" instead!