Oops, an error
Loading. Please wait.

Provoke Tab

ver1
ver1

Whole song

Interactive

More versions @911Tabs.com
3,904 views 1 this week
no commentswrite comment
1 2 3 4 5
accurate
x 1
Autoscroll
+/-
esc
set tempo
stop
Contributor
Difficulty
Tuning
intermediate
B F# B E G# C#
WARNING: You are trying to view
                                    content from Ultimate-Guitar.com
                                    in an unauthorized application,
                                    which is prohibited.

                                    Please use an official Ultimate
                                    Guitar Tabs application for iPhone,
                                    iPad or Android to access legitimate
                                    chords, guitar, bass, and drum tabs
                                    from Ultimate-Guitar.com database.

                                    Type "ultimate guitar tabs" in Apple
                                    App Store's or Android Market's
                                    search to find the application.

THE GHOST INSIDE

PROVOKE


Tabbed by:Mikexx007     
Email:mike_tank99@hotmail.com
2 Guitars
Tuning:  Drop B  (Lowest to Highest)  B,F#,B,E,G#,C#

*=Palm Mute
p=pull off



*******Intro/Main riff*******


 / Guitar 1          
|---------------------------------------------------------------------------|
|---------------------------------------------------------------------------|
|---------------------------------------------------------------------------|
|-0-0-0-0-0-0-0-0-0-0-0-0-0-0-7-7-7-0-0-0-0-0-0-0-0-0-0-2-2-2-2-------------|
|-0-0-0-0-0-0-0-0-0-0-0-0-0-0-8-8-8-0-0-0-0-0-0-0-0-0-0-3-3-3-3-------------|
|-0-0-0-0-0-0-0-0-0-0-0-0-0-0-0-0-0-0-0-0-0-0-0-0-0-0-0---------------------|
|   * *   * *   * *   * *   *       * *   * *   * *   *    
| Guitar 2
|---------------------------------------------------------------------------|
|---------------------------------------------------------------------------|
|---------------------------------------------------------------------------|
|-7-----7-----7-----7-----7---7-7-7-----7-----7-----7---2-2-2-2-------------|
|-8-----8-----8-----8-----8---8-8-8-----8-----8-----8---3-3-3-3-------------|
|-0-0-0-7-0-0-0-0-0-7-0-0-0-0-7-7-7-0-0-0-0-0-7-0-0-0-0---------------------|
\   * *   * *   * *   * *   *       * *   * *   * *   *    

/ Guitar 1
|---------------------------------------------------------------------------|
|---------------------------------------------------------------------------|
|---------------------------------------------------------------------------|
|-0-0-0-0-0-0-0-0-0-0-0-0-0-0-7-7-7-0-0-0-0-0-0-0-\pickslide----------------|
|-0-0-0-0-0-0-0-0-0-0-0-0-0-0-8-8-8-0-0-0-0-0-0-0-\pickslide----------------|
|-0-0-0-0-0-0-0-0-0-0-0-0-0-0-0-0-0-0-0-0-0-0-0-0-\pickslide----------------|
|   * *   * *   * *   * *   *       * *   * *   *    
| Guitar 2
|---------------------------------------------------|
|---------------------------------------------------|
|---------------------------------------------------|
|-7-----7-----7-----7-----7---7-7-7-----7-----7-----|
|-8-----8-----8-----8-----8---8-8-8-----8-----8-----|
|-0-0-0-7-0-0-0-0-0-7-0-0-0-0-0-0-0-0-0-0-0-0-7-0-0-|
\   * *   * *   * *   * *   *       * *   * *   * *       



*******Verse 1*******

 Guitars 1&2
|---------------------------------------------------------------------------|
|---------------------------------------------------------------------------|
|---------------------------------------------------------------------------|
|-0-0-0-0-0-0-0-0-0-0-0-0-0-8--10--10--10-10-10-4--3--3-3-3-3-7-7-7---------|
|-0-0-0-0-0-0-0-0-0-0-0-0-0-8--10--10--10-10-10-4--3--3-3-3-3-7-7-7---------|
|-0-0-0-0-0-0-0-0-0-0-0-0-0-8--10--10--10-10-10-4--3--3-3-3-3-7-7-7---------|  x2
    * *   * *   * *   * *               *  *  *         * *  



*******Main Riff*******

/ Guitar 1
|---------------------------------------------------------------------------|
|---------------------------------------------------------------------------|
|---------------------------------------------------------------------------|
|-0-0-0-0-0-0-0-0-0-0-0-0-0-0-7-7-7-0-0-0-0-0-0-0-0-0-0---------------------|
|-0-0-0-0-0-0-0-0-0-0-0-0-0-0-8-8-8-0-0-0-0-0-0-0-0-0-0---------------------|
|-0-0-0-0-0-0-0-0-0-0-0-0-0-0-0-0-0-0-0-0-0-0-0-0-0-0-0--8-8-5-5-7----------| 
|   * *   * *   * *   * *   *       * *   * *   * *   * 
| Guitar 2
|---------------------------------------------------------------------------|
|---------------------------------------------------------------------------|
|---------------------------------------------------------------------------|
|-7-----7-----7-----7-----7---7-7-7-----7-----7-----7-----------------------|
|-8-----8-----8-----8-----8---8-8-8-----8-----8-----8-----------------------|
|-0-0-0-7-0-0-0-0-0-7-0-0-0-0-7-7-7-0-0-0-0-0-7-0-0-0-0--8-8-5-5-7----------|  x2
\   * *   * *   * *   * *   *       * *   * *   * *   

 

*******Verse 2*******


 Guitars 1&2
|---------------------------------------------------------------------------|
|---------------------------------------------------------------------------|
|---------------------------------------------------------------------------|
|---0-0-0-0---0-------0-0-0---0-------0-0-0---0-----------------------------|
|---0-0-0-0---0-------0-0-0---0-------0-0-0---0-----3-----3-----3-----------|
|-0-0-0-0-0-1-0-1-1p0-0-0-0-1-0-1-1p0-0-0-0-1-0-1p0---6-5---6-5-------------| x2
    * * * *   *       * * *   *       * * *   *




  
*******Main Riff*******


/ Guitar 1
|---------------------------------------------------------------------------|
|---------------------------------------------------------------------------|
|---------------------------------------------------------------------------|
|-0-0-0-0-0-0-0-0-0-0-0-0-0-0-7-7-7-0-0-0-0-0-0-0-0-0-0-2-2-2-2-------------|
|-0-0-0-0-0-0-0-0-0-0-0-0-0-0-8-8-8-0-0-0-0-0-0-0-0-0-0-3-3-3-3-------------|
|-0-0-0-0-0-0-0-0-0-0-0-0-0-0-0-0-0-0-0-0-0-0-0-0-0-0-0---------------------|
|   * *   * *   * *   * *   *       * *   * *   * *   *    
| Guitar 2
|---------------------------------------------------------------------------|
|---------------------------------------------------------------------------|
|---------------------------------------------------------------------------|
|-7-----7-----7-----7-----7---7-7-7-----7-----7-----7---2-2-2-2-------------|
|-8-----8-----8-----8-----8---8-8-8-----8-----8-----8---3-3-3-3-------------|
|-0-0-0-7-0-0-0-0-0-7-0-0-0-0-7-7-7-0-0-0-0-0-7-0-0-0-0---------------------|
\   * *   * *   * *   * *   *       * *   * *   * *   *    



/Guitar 1
|---------------------------------------------------------------------------|
|---------------------------------------------------------------------------|
|---------------------------------------------------------------------------|
|-0-0-0-0-0-0-0-0-0-0-0-0-0-0-7-7-7-0-0-0-0-0-0-0-------------0--0--0-------|
|-0-0-0-0-0-0-0-0-0-0-0-0-0-0-8-8-8-0-0-0-0-0-0-0--3----------0--0--0-------|
|-0-0-0-0-0-0-0-0-0-0-0-0-0-0-0-0-0-0-0-0-0-0-0-0------6---5--1--1--1-------|
|   * *   * *   * *   * *   *       * *   * *   *             *  *  *
| Guitar 2
|---------------------------------------------------------------------------|
|---------------------------------------------------------------------------|
|---------------------------------------------------------------------------|
|-7-----7-----7-----7-----7---7-7-7-----7-----7---------------0--0--0-------|
|-8-----8-----8-----8-----8---8-8-8-----8-----8----3----------0--0--0-------|
|-0-0-0-7-0-0-0-0-0-7-0-0-0-0-7-7-7-0-0-0-0-0-7-0------6---5--1--1--1-------|
\   * *   * *   * *   * *   *       * *   * *   *             *  *  *  


*******1st Breakdown*******


 Guitars 1&2
|---------------------------------------------------------------------------|
|---------------------------------------------------------------------------|
|---------------------------------------------------------------------------|
|-0----------------------------------------------------0--0--0--------------|
|-0----------------------------------------------------0--0--0--------------|
|-0----------------------------------------------------1--1--1--------------| x2
                                                       *  *  *



|---------------------------------------------------------------------------|
|---------------------------------------------------------------------------|
|---------------------------------------------------------------------------|
|-0----0------------0----0----------0--0---0000-----------------------------|
|-0----0------------0----0----------0--0---0000-----------------------------|
|-0----0------------0----0----------0--0---0000-----------------------------|



|---------------------------------------------------------------------------|
|---------------------------------------------------------------------------|
|---------------------------------------------------------------------------|
|-0----0------------0----0----------0--0---00-------------------------------|
|-0----0------------0----0----------0--0---00-pinch harmonic----------------|
|-0----0------------0----0----------0--0---00-------------------------------|



|---------------------------------------------------------------------------|
|---------------------------------------------------------------------------|
|---------------------------------------------------------------------------|
|-0----0------------0----0----------0--0---0000-----------------------------|
|-0----0------------0----0----------0--0---0000-----------------------------|
|-0----0------------0----0----------0--0---0000-----------------------------| x2




*******Fast Part*******



/ Guitar 1
|-------------------------------------------------------------------------------------------|
|-------------------------------------------------------------------------------------------|
|-7-------7--9--10--10-14--14--14---14--10---10---10--10--10--10--17---17---17-13---13---13-|
|-------------------------------------------------------------------------------------------|
|-5-------5--7--8---8--12--12--12---12--8----8----8---8---8---8---15---15---15-11---11---11-|
|-------------------------------------------------------------------------------------------|
| Guitar 2
|-------------------------------------------------------------------------------------------|
|-------------------------------------------------------------------------------------------|
|-7-------7--10-14--15-17--17--17---17--15---15---15--15--15--15--14---14---14-12---12---12-|
|-------------------------------------------------------------------------------------------|
|-5-------5--8--12--13-15--15--15---15--13---13---13--13--13--13--12---12---12-10---10---10-|
|-------------------------------------------------------------------------------------------| x2
\




*******Main Riff*******



/ Guitar 1
|---------------------------------------------------------------------------|
|---------------------------------------------------------------------------|
|---------------------------------------------------------------------------|
|-0-0-0-0-0-0-0-0-0-0-0-0-0-0-7-7-7-0-0-0-0-0-0-0-0-0-0---------------------|
|-0-0-0-0-0-0-0-0-0-0-0-0-0-0-8-8-8-0-0-0-0-0-0-0-0-0-0---------------------|
|-0-0-0-0-0-0-0-0-0-0-0-0-0-0-0-0-0-0-0-0-0-0-0-0-0-0-0--8-8-5-5-7----------| 
|   * *   * *   * *   * *   *       * *   * *   * *   * 
| Guitar 2
|---------------------------------------------------------------------------|
|---------------------------------------------------------------------------|
|---------------------------------------------------------------------------|
|-7-----7-----7-----7-----7---7-7-7-----7-----7-----7-----------------------|
|-8-----8-----8-----8-----8---8-8-8-----8-----8-----8-----------------------|
|-0-0-0-7-0-0-0-0-0-7-0-0-0-0-7-7-7-0-0-0-0-0-7-0-0-0-0--8-8-5-5-7----------| x4
\   * *   * *   * *   * *   *       * *   * *   * *   





*******2nd Breakdown intro*******



  Guitars 1&2
|---------------------------------------------------------------------------|
|---------------------------------------------------------------------------|
|---------------------------------------------------------------------------|
|-1----------------------------------------1--------------------------------|
|-1----------------------------------------1--------------------------------|
|-1----------------------------------------1--------------------------------|




/  Guitar 1
|---------------------------------------------------------------------------|
|---------------------------------------------------------------------------|
|---------------------------------------------------------------------------|
|-1-------------------------------------------------------------------------|
|-1-------------------------------------------------------------------------|
|-1-------------------------------------------------------------------------|
|
|  Guitar 2
|---------------------------------------------------------------------------|  
|---------------------------------------------------------------------------|  
|---------------------------------------------------------------------------|  
|-1---1---1---1--1--1-1----1--1--1--1--1----1---1--1-1-1--------------------| 
|-1---1---1---1--1--1-1----1--1--1--1--1----1---1--1-1-1--------------------|
|-1---1---1---1--1--1-1----1--1--1--1--1----1---1--1-1-1--------------------|
\





/  Guitar 1
|---------------------------------------------------------------------------|
|---------------------------------------------------------------------------|
|---------------------------------------------------------------------------|
|-1------------------------\pickslide---------------------------------------|
|-1------------------------\pickslide---------------------------------------|
|-1------------------------\pickslide---------------------------------------|
|
|  Guitar 2
|---------------------------------------------------------------------------|  
|---------------------------------------------------------------------------|  
|---------------------------------------------------------------------------|  
|-1---1---1---1--1--1-1----1--1--1--1--1----1---1--1-1-1--------------------| 
|-1---1---1---1--1--1-1----1--1--1--1--1----1---1--1-1-1--------------------|
|-1---1---1---1--1--1-1----1--1--1--1--1----1---1--1-1-1--------------------|
\



*******2nd Breakdown******* 


 Guitars 1 & 2
|---------------------------------------------------------------------------|
|---------------------------------------------------------------------------|
|---------------------------------------------------------------------------|
|-0---0---0---0--0--0-0----0--0--0--0--0----0---0--0-0-0--------------------|
|-0---0---0---0--0--0-0----0--0--0--0--0----0---0--0-0-0--------------------|
|-0---0---0---0--0--0-0----0--0--0--0--0----0---0--0-0-0--------------------| x2
  *   *   *   *  *  * *    *  *  *  *  *    *   *  * * *

|---------------------------------------------------------------------------|
|---------------------------------------------------------------------------|
|---------------------------------------------------------------------------|
|-0---0---0---0--0--0-0----0--0--0--0--0----0---0--0-0-0--------------------|
|-0---0---0---0--0--0-0----0--0--0--0--0----0---0--0-0-0--------------------|
|-1---1---1---1--1--1-1----1--1--1--1--1----1---1--1-1-1--------------------| x2
  *   *   *   *  *  * *    *  *  *  *  *    *   *  * * *


comments
We did not receive enough feedback on this tab! Please rate:
print report bad tab
1 2 3 4 5
I want to post or [tab]
guest
You may want to rate the tab now too:
select rating
Please do not post tabs as comments. Select "correction" instead!