Oops, an error
Loading. Please wait.

Revolutionary Bang The Drum Tab

ver1
ver1

Whole song

Interactive

More versions @911Tabs.com
130 views 3 this week
no commentswrite comment
1 2 3 4 5
please rate
Autoscroll
+/-
esc
set tempo
stop
Contributor
Tuning
B F# B E G# C#
Hey! There's an official Ultimate Guitar app which is ideal
for learning songs when you're away from computer. Get the app
WARNING: You are trying to view
                                    content from Ultimate-Guitar.com
                                    in an unauthorized application,
                                    which is prohibited.

                                    Please use an official Ultimate
                                    Guitar Tabs application for iPhone,
                                    iPad or Android to access legitimate
                                    chords, guitar, bass, and drum tabs
                                    from Ultimate-Guitar.com database.

                                    Type "ultimate guitar tabs" in Apple
                                    App Store's or Android Market's
                                    search to find the application.
Song: Revolutionary (Bang The Drum)
Artist: The Ghost Inside
Album: Fury And The Fallen Ones
Year: 2008
Tuning: Drop B



1ST GUITAR


Intro – 0:04
C#||----------------------|-------------------------|
G#||----------------------|-------------------------|                    
E ||----------------------|-------------------------|
B ||----------------------|-------------------------|
F#||-------------0--0--0--|-------------------------|
B ||-------------0--0--0--|-------------------------|
                 PM PM


                          Pick Scrape
-------------------------|--------------------------|
-------------------------|--------------------------|                   
-------------------------|--------------------------|
-------------------------|--------------------------|
-------------------------|-//-----------------------|
-------------------------|-//-----------------------|





        Verse – 0:09
-------------------------|--------------------------|
-------------------------|--------------------------|                   
-------------------------|--------------------------|
-------------------------|--------7--7--7-----------|
-//-------------------0--|-----0--5--5--5--0--0--0--|
-//-------------------0--|-----0-----------0--0--0--|
                              PM          PM PM

-------------------------|--------------------------|
-------------------------|--------------------------|                   
-------------------------|--------------------------|
----7--7--7--7--------8--|-----8--8-----7--8--------|
----5--5--5--5--0--0--8--|-----8--8-----7--8--0--5--|
----------------0--0--8--|-----8--8-----7--8--0--5--|
                PM PM                         PM

-------------------------|--------------------------|
-------------------------|--------------------------|                   
-------------------------|--------------------------|
-------------------------|--------7--7--7-----------|
----5--5--0--5--3--2--0--|-----0--5--5--5--0--0--0--|
----5--5--0--5--3--2--0--|-----0-----------0--0--0--|
          PM                   PM          PM PM

----------------------------|---------------------------|
----------------------------|---------------------------|               
----------------------------|---------------------------|
---10--10--10--10--------8--|-----8--8-----7--8---------|
----8---8---8---8--0--0--8--|-----8--8-----7--8--0--10--|
-------------------0--0--8--|-----8--8-----7--8--0--10--|
                   PM PM                         PM

-------------------------|--------------------------|
-------------------------|--------------------------|                   
-------------------------|--------------------------|
-------------------------|--------7--7--7-----------|
----8-----7--8--7--5--0--|-----0--5--5--5--0--0--0--|
----8-----7--8--7--5--0--|-----0-----------0--0--0--|
                               PM          PM PM

-------------------------|--------------------------|
-------------------------|--------------------------|                 
-------------------------|--------------------------|
----7--7--7--7--------8--|-----8--8-----7--8--------|
----5--5--5--5--0--0--8--|-----8--8-----7--8--0--5--|
----------------0--0--8--|-----8--8-----7--8--0--5--|
                PM PM                         PM

-----------------------|----------------------------|
-----------------------|----------------------------|                
-----------------------|---10--10--10--10-----------|
-----------------------|----x---x---x---x-----------|
-----5--0--5--3--2--0--|----8---8---8---8--0--0--0--|
-----5--0--5--3--2--0--|-------------------0--0--0--|
        PM                                 PM

----------------------------|-------------------------|
----------------------------|-------------------------|         
---14--14--14--14-----------|-------------------------|
----x---x---x---x--------8--|---8--8-----7--8---------|
---12--12--12--12--0--0--8--|---8--8-----7--8--0--10--|
-------------------0--0--8--|---8--8-----7--8--0--10--|
                   PM PM                       PM

----------------------------|
----------------------------|
----------------------------|
----------------------------|
------8------7--8--7--5-----|
------8------7--8--7--5--0--|






Verse 2 - 0:29
----------------------------|
----------------------------|                                           
----------------------------|
----------------------------|
----------------------------|
------0------0-----3--3--0--|

----------------------------|--------------------------|
----------------------------|--------------------------|                
----------------------------|--------------------------|
----------------------------|--------------------------|
----------------------------|--------------------------|
------0------0-----3--3--0--|-----0-----0-----7--7--0--|

----------------------------|--------------------------|
----------------------------|--------------------------|        X4
----------------------------|--------------------------|
----------------------------|--------------------------|
-------------------------5--|--------------------------|
------0------0-----3--0-----|-----0--8--0--7--8--0--0--|
                      PM          PM    PM       PM

Last time end on
|---|
|---|
|10-|
|-x-|
|-8-|
|---|






Chorus – 0:50
-----------------------------|----------------------------|
-----------------------------|----------------------------|             
---10-----10--10--10-----10--|---10-----12--12--12-----9--|
----x------x---x---x------x--|----x------x---x---x-----x--|
----8------8---8---8------8--|----8-----10--10--10-----7--|
-----------------------------|----------------------------|

---------------------------|-------------------------------|
---------------------------|-------------------------------|    X2
-----9-----9--9--9-----13--|-----13-----13--13--13-----10--|
-----x-----x--x--x------x--|------x------x---x---x------x--|
-----7-----7--7--7-----11--|-----11-----11--11--11------8--|
---------------------------|-------------------------------|



Last time ring out on
|---|
|---|
|---|
|---|
|-0-|
|-0-|







Bridge – 1:01
--------------------------|--------------------------|
-----------------3-----3--|--------------------------|          
-----------------6-----6--|--------------------------|
--------------------------|--------------------------|
--------------------------|-----0--0----0------------|
--------------------------|-----0--0----0------------|
                                PM PM

--------------------------|--------------------------|
--------------------------|--------------------------|          
--------------------------|--------------------------|
--------------------------|--------------------------|
--------------------------|--0--0--0-----------------|
--------------------------|--0--0--0-----------------|
                             PM PM PM

--------------------------|
--------------------------|
--------------------------|
--------------------------|
-----------------1-----0--|
--0--3--1--0--3-----3--0--|








Breakdown – 1:11
---------------------------|-------------------------|
---------------------------|-------------------------|          
---------------------------|-------------------------|
---------------------------|----------------3-----3--|
------0--0--0--0--0--0-----|-------------0--1-----1--|
------0--0--0--0--0--0-----|-------------0-----------|
      PM PM PM PM PM PM                  PM

---------------------------|-------------------------|
---------------------------|-------------------------|          
---------------------------|-------------------------|
---------------------------|-------------------------|
------0--0--0--0--0--0-----|----------------1-----0--|
------0--0--0--0--0--0-----|----------0--3-----3--0--|
      PM PM PM PM PM PM

---------------------------|-------------------------|
---------------------------|-------------------------|          
---------------------------|-------------------------|
---------------------------|----------------3-----3--|
------0--0--0--0--0--0-----|-------------0--1-----1--|
------0--0--0--0--0--0-----|-------------0-----------|
      PM PM PM PM PM PM                  PM

--------------------------|--------------------------|
--------------------------|--------------------------|          X2
--------------------------|--------------------------|
--------------------------|--------------------------|
------0--0--0--0--0--0----|-----------------1--------|
------0--0--0--0--0--0----|--0--3--1--0--3-----3--0--|
      PM PM PM PM PM PM


--------------------------|--------------------------|
--------------------------|--------------------------|
--------------------------|--------------------------|
--------------------------|--------------------------|
--0-----------------------|--0--------------------0--|
--0-----------------------|--0--------------------0--|








 Verse – 1:33
--------------------------|--------------------------|
--------------------------|--------------------------|          
--------------------------|--------------------------|
--------7--7--7-----------|-----7--7--7--7--------8--|
-----0--5--5--5--0--0--0--|-----5--5--5--5--0--0--8--|
-----0-----------0--0--0--|-----------------0--0--8--|
    PM          PM PM                       PM PM

--------------------------|--------------------------|
--------------------------|--------------------------|          
--------------------------|--------------------------|
-----8--8-----7--8--------|--------------------------|
-----8--8-----7--8--0--5--|-----5--5--0--5--3--2--0--|
-----8--8-----7--8--0--5--|-----5--5--0--5--3--2--0--|
                    PM                PM

--------------------------|------------------------------|
--------------------------|------------------------------|              
-----7--7--7--7-----------|-----10--10--10--10-----------|
-----x--x--x--x-----------|------x---x---x---x--------8--|
-----5--5--5--5--0--0--0--|------8---8---8---8--0--0--8--|
-----------------0--0--0--|---------------------0--0--8--|
                 PM PM                          PM PM

---------------------------|--------------------------|
---------------------------|--------------------------|         X2
---------------------------|--------------------------|
-----8--8-----7--8---------|--------------------------|
-----8--8-----7--8--0--10--|-----8-----7--8--7--5--0--|
-----8--8-----7--8--0--10--|-----8-----7--8--7--5--0--|
                    PM








Verse 2 – 1:53
--------------------------|--------------------------|
--------------------------|--------------------------|          
--------------------------|--------------------------|
--------------------------|--------------------------|
--------------------------|--------------------------|
-----0-----0-----3--3--0--|-----0-----0-----7--7--0--|

--------------------------|--------------------------|
--------------------------|--------------------------|          X2
--------------------------|--------------------------|
--------------------------|--------------------------|
-----------------------5--|--------------------------|
-----0-----0-----3--0-----|-----0--8--0--7--8--0--0--|
                    PM          PM    PM       PM


Last time end on
|---|
|---|
|10-|
|-x-|
|-8-|
|---|








Chorus – 2:03
------------------------------|-----------------------------|
------------------------------|-----------------------------|   
----10-----10--10--10-----10--|----10-----12--12--12-----9--|
-----x------x---x---x------x--|-----x------x---x---x-----x--|
-----8------8---8---8------8--|-----8-----10--10--10-----7--|
------------------------------|-----------------------------|

---------------------------|-------------------------------|
---------------------------|-------------------------------|    X3
-----9-----9--9--9-----13--|-----13-----13--13--13-----10--|
-----x-----x--x--x------x--|------x------x---x---x------x--|
-----7-----7--7--7-----11--|-----11-----11--11--11------8--|
---------------------------|-------------------------------|



------------------------------|-----------------------------|
------------------------------|-----------------------------|
----10-----10--10--10-----10--|----10-----12--12--12-----10-|
-----x------x---x---x------x--|-----x------x---x---x-----x--|
-----8------8---8---8------8--|-----8-----10--10--10-----8--|
------------------------------|-----------------------------|











Bridge – 2:20
---------------------------------|---------------------------------|
---------------------------------|---------------------------------|    
-----10--10--10--10--10--10--10--|--10--10--10--10--10--10--10--5--|
------x---x---x---x---x---x---x--|---x---x---x---x---x---x---x--x--|
------8---8---8---8---8---8---8--|---8---8---8---8---8---8---8--3--|
---------------------------------|---------------------------------|

----------------------------|--------------------------|
----------------------------|--------------------------| 
-------5--5--5--5--5--5--5--|--5--5--5--5--------------|
-------x--x--x--x--x--x--x--|--x--x--x--x--------------|
-------3--3--3--3--3--3--3--|--3--3--3--3--0--0--0--0--|
----------------------------|--------------0--0--0--0--|
                                              PM PM PM

-----------------------------|-------------------------|
-----------------------------|-------------------------|
-----------------------------|-------------------------|
-----------------------------|-------------------------|
-----------------------------|----------------------0--|
-----------------------------|-------------5--3--2--0--|
                                            PM PM PM












Verse 3 – 2:27
-----------------------------|------------------------------|
-----------------------------|------------------------------|           
-------14-----12--14-----15--|-----14--15-----14--15--------|
--------x------x---x------x--|------x---x------x---x--------|
----0--12--0--10--12--0--13--|-----12--13--0--12--13--0--0--|
----0------0----------0------|-------------0----------0--0--|
    PM     PM         PM                   PM         PM

-----------------------------|--------------------------|
-----------------------------|--------------------------|                      
--------14-----12--14--------|--------------------------|
---------x------x---x--------|--------------------------|
-----0--12--0--10--12--0-----|-----------------------0--|
-----0------0----------0--0--|-----0-----0-----8--7--0--|
     PM     PM         PM

-----------------------------|-----------------------------|
-----------------------------|-----------------------------|           
-------14-----12--14-----15--|----14--15-----14--15--------|
--------x------x---x------x--|-----x---x------x---x--------|
----0--12--0--10--12--0--13--|----12--13--0--12--13--0--0--|
----0------0----------0------|------------0----------0--0--|
    PM     PM         PM                  PM         PM

-----------------------------|-------------------------|
-----------------------------|-------------------------|        X2
--------14-----12--14--------|-------------------------|
---------x------x---x--------|-------------------------|
-----0--12--0--10--12--0-----|----------------------0--|
-----0------0----------0--0--|-----1--3--0----8--7--0--|
     PM     PM         PM













Outro – 2:48
-----------------------------|-------------------------|
-----------------------------|-------------------------|                        
-----------------------------|-------------------------|
-----------------------------|-------------------------|
-----0--0----0---------------|-------------------------|
-----0--0----0---------------|-------------------------|
     PM PM

-----------------------------|-------------------------|
-----------------------------|-------------------------|                        
-----------------------------|-------------------------|
-----------------------------|-------------------------|
-----------------------------|-------------0--0--0--0--|
-----------------------------|-------------0--0--0--0--|
                                           PM PM PM PM

-----------------------------|-------------------------|
-----------------------------|-------------------------|                        
-----------------------------|-------------------------|
-----------------------------|-------------------------|
-----0--0----0---------------|-------------------------|
-----0--0----0---------------|-------------------------|
     PM PM

-----------------------------|-------------------------|
-----------------------------|--------------4----------|                        
-----------------------------|--------------7b---------|
-----------------------------|-------------------------|
-----------------------------|----------------------0--|
-----------------------------|----------------------0--|
                                                    PM

-----------------------------|-------------------------|
-----------------------------|-------------------------|                        
-----------------------------|-------------------------|
-----------------------------|-------------------------|
-----0--0----0---------------|-------------------------|
-----0--0----0---------------|-------------------------|
     PM PM
-----------------------------|---------------------------|
-----------------------------|---------------------------|
-----------------------------|---------------------------|
-----------------------------|---------------------------|
-----------------------------|-----8---------7--------0--|
-----------------------------|--0-----10--0-----8--7--0--|
                                PM        PM


FADE OUT
-----------------------------|-------------------------|
-----------------------------|-------------------------|
-----------------------------|-------------------------|
-----------------------------|-------------------------|
-----0--0----0---------------|-------------------------|
-----0--0----0---------------|-------------------------|
     PM PM












2ND GUITAR
Intro – 0:04
C#||----------------------|-------------------------|
G#||----------------------|-------------------------|                    
E ||----------------------|-------------------------|
B ||----------------------|-------------------------|
F#||-------------0--0--0--|-------------------------|
B ||-------------0--0--0--|-------------------------|
                 PM PM

                           Pick Scrape
-------------------------|--------------------------|
-------------------------|--------------------------|                   
-------------------------|--------------------------|
-------------------------|--------------------------|
-------------------------|-//-----------------------|
-------------------------|-//-----------------------|











        Verse – 0:09
-------------------------|--------------------------|
-------------------------|--------------------------|                   
-------------------------|--------------------------|
-------------------------|--------7--7--7-----------|
-//-------------------0--|-----0--5--5--5--0--0--0--|
-//-------------------0--|-----0-----------0--0--0--|
                  PM          PM PM

-------------------------|--------------------------|
-------------------------|--------------------------|                   
-------------------------|--------------------------|
----7--7--7--7--------8--|-----8--8-----7--8--------|
----5--5--5--5--0--0--8--|-----8--8-----7--8--0--5--|
----------------0--0--8--|-----8--8-----7--8--0--5--|
                PM PM                         PM

-------------------------|--------------------------|
-------------------------|--------------------------|                   
-------------------------|--------------------------|
-------------------------|--------7--7--7-----------|
----5--5--0--5--3--2--0--|-----0--5--5--5--0--0--0--|
----5--5--0--5--3--2--0--|-----0-----------0--0--0--|
          PM                   PM          PM PM

----------------------------|---------------------------|
----------------------------|---------------------------|               
---10--10--10--10-----------|---------------------------|
----x---x---x---x--------8--|-----8--8-----7--8---------|
----8---8---8---8--0--0--8--|-----8--8-----7--8--0--10--|
-------------------0--0--8--|-----8--8-----7--8--0--10--|
                   PM PM                         PM

-------------------------|--------------------------|
-------------------------|--------------------------|                   
-------------------------|--------------------------|
-------------------------|--------7--7--7-----------|
----8-----7--8--7--5--0--|-----0--5--5--5--0--0--0--|
----8-----7--8--7--5--0--|-----0-----------0--0--0--|
                               PM          PM PM

-------------------------|--------------------------|
-------------------------|--------------------------|                   
-------------------------|--------------------------|
----7--7--7--7--------8--|-----8--8-----7--8--------|
----5--5--5--5--0--0--8--|-----8--8-----7--8--0--5--|
----------------0--0--8--|-----8--8-----7--8--0--5--|
                PM PM                         PM

-----------------------|----------------------------|
-----------------------|----------------------------|                   
-----------------------|----7---7---7---7-----------|
-----------------------|----x---x---x---x-----------|
-----5--0--5--3--2--0--|----5---5---5---5--0--0--0--|
-----5--0--5--3--2--0--|-------------------0--0--0--|
        PM                                 PM

----------------------------|-------------------------|
----------------------------|-------------------------|         
---10--10--10--10-----------|-------------------------|
----x---x---x---x--------8--|---8--8-----7--8---------|
----8---8---8---8--0--0--8--|---8--8-----7--8--0--10--|
-------------------0--0--8--|---8--8-----7--8--0--10--|
                   PM PM                       PM


----------------------------|
----------------------------|
----------------------------|
----------------------------|
------8------7--8--7--5-----|
------8------7--8--7--5-----|









Verse 2 – 0:30
----------------------------|
----------------------------|                                           
----------------------------|
----------------------------|
----------------------------|
-------------------3--3--0--|

----------------------------|--------------------------|
----------------------------|--------------------------|                
----------------------------|--------------------------|
----------------------------|--------------------------|
----------------------------|--------------------------|
------0------0-----3--3--0--|-----0-----0-----7--7--0--|
----------------------------|--------------------------|
----------------------------|--------------------------|        X4
----------------------------|--------------------------|
----------------------------|--------------------------|
-------------------------5--|--------------------------|
------0------0-----3--0-----|-----0--8--0--7--8--0--0--|
                      PM          PM    PM       PM



Last time end on
|---|
|---|
|---|
|---|
|-8-|
|-8-|









Chorus – 0:51
-----------------------------|----------------------------|
-----------------------------|----------------------------|             
-----------------------------|----------------------------|
-----------------------------|----------------------------|
----8------8---8---8------8--|----8-----10--10--10-----7--|
----8------8---8---8------8--|----8-----10--10--10-----7--|

---------------------------|-------------------------------|
---------------------------|-------------------------------|    X2
---------------------------|-------------------------------|
---------------------------|-------------------------------|
-----7-----7--7--7-----11--|-----11-----11--11--11------8--|
-----7-----7--7--7-----11--|-----11-----11--11--11------8--|


Last time ring out on
|---|
|---|
|---|
|---|
|-0-|
|-0-|







Bridge – 1:01
--------------------------|--------------------------|
-----------------3-----3--|--------------------------|          
-----------------6-----6--|--------------------------|
--------------------------|--------------------------|
--------------------------|-----0--0----0------------|
--------------------------|-----0--0----0------------|
                                PM PM

--------------------------|--------------------------|
--------------------------|--------------------------|          
--------------------------|--------------------------|
--------------------------|--------------------------|
--------------------------|--0--0--0-----------------|
--------------------------|--0--0--0-----------------|
                             PM PM PM


--------------------------|
--------------------------|
--------------------------|
--------------------------|
-----------------1-----0--|
--------------3-----3--0--|











Breakdown – 1:11
---------------------------|-------------------------|
---------------------------|-------------------------|          
---------------------------|-------------------------|
---------------------------|----------------3-----3--|
------0--0--0--0--0--0-----|-------------0--1-----1--|
------0--0--0--0--0--0-----|-------------0-----------|
      PM PM PM PM PM PM                  PM

---------------------------|-------------------------|
---------------------------|-------------------------|          
---------------------------|-------------------------|
---------------------------|-------------------------|
------0--0--0--0--0--0-----|----------------1-----0--|
------0--0--0--0--0--0-----|----------0--3-----3--0--|
      PM PM PM PM PM PM

---------------------------|-------------------------|
---------------------------|-------------------------|          
---------------------------|-------------------------|
---------------------------|----------------3-----3--|
------0--0--0--0--0--0-----|-------------0--1-----1--|
------0--0--0--0--0--0-----|-------------0-----------|
      PM PM PM PM PM PM                  PM

--------------------------|--------------------------|
--------------------------|--------------------------|          X2
--------------------------|--------------------------|
--------------------------|--------------------------|
------0--0--0--0--0--0----|-----------------1--------|
------0--0--0--0--0--0----|--------------3-----3--0--|
      PM PM PM PM PM PM




--------------------------|--------------------------|
--------------------------|--------------------------|
--------------------------|--------------------------|
--------------------------|--------------------------|
--0-----------------------|--0------------8//-----0--|
--0-----------------------|--0------------8//-----0--|











Verse – 1:33
--------------------------|--------------------------|
--------------------------|--------------------------|          
--------------------------|--------------------------|
--------7--7--7-----------|-----7--7--7--7--------8--|
-----0--5--5--5--0--0--0--|-----5--5--5--5--0--0--8--|
-----0-----------0--0--0--|-----------------0--0--8--|
    PM          PM PM                       PM PM

--------------------------|--------------------------|
--------------------------|--------------------------|         
--------------------------|--------------------------|
-----8--8-----7--8--------|--------------------------|
-----8--8-----7--8--0--5--|-----5--5--0--5--3--2--0--|
-----8--8-----7--8--0--5--|-----5--5--0--5--3--2--0--|
                    PM                PM
--------------------------|------------------------------|
--------------------------|------------------------------|              
-----10-10-10-10----------|-----14--14--14--14-----------|
-----x--x--x--x-----------|------x---x---x---x--------8--|
-----8--8--8--8--0--0--0--|-----12--12--12--12--0--0--8--|
-----------------0--0--0--|---------------------0--0--8--|
                 PM PM                          PM PM

---------------------------|--------------------------|
---------------------------|--------------------------|         X2
---------------------------|--------------------------|
-----8--8-----7--8---------|--------------------------|
-----8--8-----7--8--0--10--|-----8-----7--8--7--5--0--|
-----8--8-----7--8--0--10--|-----8-----7--8--7--5--0--|













Verse 2 – 1:53
--------------------------|--------------------------|
--------------------------|--------------------------|          
--------------------------|--------------------------|
--------------------------|--------------------------|
--------------------------|--------------------------|
-----0-----0-----3--3--0--|-----0-----0-----7--7--0--|

--------------------------|--------------------------------------|
--------------------------|--------------------------------------|         
--------------------------|--------------------------------------|
--------------------------|--------------------------------------|
-----------------------8--|--------------------------------------|
-----0-----0-----3--0-----|---0--12--0--10--12--0--0-------------|
                    PM           PM    PM       PM

--------------------------|--------------------------------------|
--------------------------|--------------------------------------|          
--------------------------|--------------------------------------|
--------------------------|--------------------------------------|
--------------------------|--------------------------------------|
-----0-----0-----3--3--0--|-----0-----0-----7--7--0--------------|

--------------------------|---------------------------|
--------------------------|---------------------------|         
--------------------------|---------------------------|
--------------------------|---------------------------|
---------------------s10--|---------------------------|
----0-----0-----3--0------|---0--15--0--14--15--0--0--|
                   PM           PM    PM       PM

Last time end on
|---|
|---|
|---|
|---|
|-8-|
|-8-|







Chorus – 2:03
-----------------------------|----------------------------|
-----------------------------|----------------------------|             
-----------------------------|----------------------------|
-----------------------------|----------------------------|
----8------8---8---8------8--|----8-----10--10--10-----7--|
----8------8---8---8------8--|----8-----10--10--10-----7--|

---------------------------|-------------------------------|
---------------------------|-------------------------------|    X3
---------------------------|-------------------------------|
---------------------------|-------------------------------|
-----7-----7--7--7-----11--|-----11-----11--11--11------8--|
-----7-----7--7--7-----11--|-----11-----11--11--11------8--|


-----------------------------|----------------------------|
-----------------------------|----------------------------|
-----------------------------|----------------------------|
-----------------------------|----------------------------|
----8------8---8---8------8--|----8-----10--10--10--------|
----8------8---8---8------8--|----8-----10--10--10--------|








-----------------------------|--------------------------|
-----------------------------|--------------------------|                       
-----------------------------|--------------------------|
-----------------------------|--------------------------|
-----------------------------|--------------0--0--0--0--|
-----------------------------|--------------0--0--0--0--|
                                            PM PM PM










Verse 3 – 2:25
-----------------------------|---------------------------|
-----------------------------|---------------------------|
-------10------9--10-----12--|----10--12-----------------|
--------x------x---x------x--|-----x---x-----------------|
----0---8--0---7---8--0--10--|-----8--10--0-----------0--|
----0------0----------0------|------------0--5--3--2--0--|
    PM     PM         PM                   PM PM PM PM

-----------------------------|-----------------------------|
-----------------------------|-----------------------------|            
-------10------9--10-----12--|----10--12-----10--12--------|
--------x------x---x------x--|-----x---x------x---x--------|
----0---8--0---7---8--0--10--|-----8--10--0---8--10--0--0--|
----0------0----------0------|------------0----------0--0--|
    PM     PM         PM                  PM         PM

-----------------------------|--------------------------|
-----------------------------|--------------------------|                       
--------10------9--10--------|--------------------------|
---------x------x---x--------|--------------------------|
-----0---8--0---7---8--0-----|-----------------------0--|
-----0------0----------0--0--|-----0-----0-----8--7--0--|
     PM     PM         PM

-----------------------------|-----------------------------|
-----------------------------|-----------------------------|            
-------10------9--10-----12--|----10--12-----10--12--------|
--------x------x---x------x--|-----x---x------x---x--------|
----0---8--0---7---8--0--10--|-----8--10--0---8--10--0--0--|
----0------0----------0------|------------0----------0--0--|
    PM     PM         PM                  PM         PM

-----------------------------|-------------------------|
-----------------------------|-------------------------|        X2
--------10------9--10--------|-------------------------|
---------x------x---x--------|-------------------------|
-----0---8--0---7---8--0-----|----------------------0--|
-----0------0----------0--0--|-----1--3--0----8--7--0--|
     PM     PM         PM











Outro – 2:48
-----------------------------|-------------------------|
-----------------------------|-------------------------|                        
-----------------------------|-------------------------|
-----------------------------|-------------------------|
-----0--0----0---------------|-------------------------|
-----0--0----0---------------|-------------------------|
     PM PM

-----------------------------|-------------------------|
-----------------------------|-------------------------|                        
-----------------------------|-------------------------|
-----------------------------|-------------------------|
-----------------------------|-------------0--0--0--0--|
-----------------------------|-------------0--0--0--0--|
                                           PM PM PM PM

-----------------------------|-------------------------|
-----------------------------|-------------------------|                        
-----------------------------|-------------------------|
-----------------------------|-------------------------|
-----0--0----0---------------|-------------------------|
-----0--0----0---------------|-------------------------|
     PM PM

-----------------------------|-------------------------|
-----------------------------|-------------------------|                        
-----------------------------|-------------------------|
-----------------------------|-------------------------|
-----------------------------|----------------------0--|
-----------------------------|----------------------0--|
                                                    PM

-----------------------------|-------------------------|
-----------------------------|-------------------------|                        
-----------------------------|-------------------------|
-----------------------------|-------------------------|
-----0--0----0---------------|-------------------------|
-----0--0----0---------------|-------------------------|
     PM PM

-----------------------------|---------------------------|
-----------------------------|---------------------------|
-----------------------------|---------------------------|
-----------------------------|---------------------------|
-----------------------------|---------------------------|
-----------------------------|---------------------------|


FADE OUT
-----------------------------|-------------------------|
-----------------------------|-------------------------|
-----------------------------|-------------------------|
-----------------------------|-------------------------|
-----0--0----0---------------|-------------------------|
-----0--0----0---------------|-------------------------|
     PM PM









Tablature Legend
----------------
PM - palm mute
b - bend
L - tied note
x - dead note
g - grace note
(n) - ghost note
> - accentuded note
PH - pitch harmonic
h - hammer on
p - pull off
S - slide
comments
We did not receive enough feedback on this tab! Please rate:
print report bad tab
1 2 3 4 5
I want to post or [tab]
guest
You may want to rate the tab now too:
select rating
Please do not post tabs as comments. Select "correction" instead!