Oops, an error
Loading. Please wait.

Slipping Away Tab

2,340 views 3 this week
no commentswrite comment
1 2 3 4 5
excellent!
x 1
Autoscroll
+/-
esc
set tempo
stop
Contributor
Tuning
A# F A# D# G C
WARNING: You are trying to view
                                    content from Ultimate-Guitar.com
                                    in an unauthorized application,
                                    which is prohibited.

                                    Please use an official Ultimate
                                    Guitar Tabs application for iPhone,
                                    iPad or Android to access legitimate
                                    chords, guitar, bass, and drum tabs
                                    from Ultimate-Guitar.com database.

                                    Type "ultimate guitar tabs" in Apple
                                    App Store's or Android Market's
                                    search to find the application.
Song: Slipping Away
Artist: The Ghost Inside
Album: Get What You Give
Year: 2012
Tuning: Drop A#



Check out my cover of this song on youtube:
http://www.youtube.com/watch?v=UC0UY9QCvkk



GUITAR 1
          
C ||-------|-------------------------------|----------------------------------|
G ||-------|-------------------------------|----------------------------------|
D#||-------|-------------------------------|----------------------------------|
A#||-------|-------------------------------|----------------------------------|
F ||-------|-------------------------------|----------------------------------|
A#||-------|--7----7-7-7-7-7-7-7-7-7-7-7-7-|--7-7-7-7-7-7-7-7-7-7-7-7-7-7-7-7-|

-----------------------|-----------------------|-----------------------|
-----------------------|-----------------------|-----------------------|
-----------------------|-----------------------|-----------------------|
-----------------------|-----------------------|--2--2----2----2----2--|
-----7----8----7----7--|-----3----7----2----2--|--0--0----0----0----0--|
--7--------------------|--3--------------------|-----------------------|

------------------------|-----------------------|-----------------------|
------------------------|-----------------------|-----------------------|
------------------------|-----------------------|-----------------------|
--3--3----3--2--2----2--|-----------------------|-----------------------|
--0--0----0--0--0----0--|--3--3----7----3----3--|--2--2----5----2----2--|
------------------------|-----------------------|-----------------------|

-----------------------|------------------------|-----------------------|
-----------------------|------------------------|-----------------------|
-----------------------|------------------------|--5--5----5----5----5--|
--2--2----2----2----2--|--3--3----3--2--2----2--|--3--3----3----3----3--|
--0--0----0----0----0--|--0--0----0--0--0----0--|--3--3----3----3----3--|
-----------------------|------------------------|--3--3----3----3----3--|

-----------------------|-----------------------|------------------------|
-----------------------|-----------------------|------------------------|
--7--7----7----7----7--|-----------------------|------------------------|
--5--5----5----5----5--|--2--2----2----2----2--|--3--3----3--2--2----2--|
--5--5----5----5----5--|--0--0----0----0----0--|--0--0----0--0--0----0--|
--5--5----5----5----5--|-----------------------|------------------------|

-----------------------|-----------------------|-----------------------|
-----------------------|-----------------------|-----------------------|
-----------------------|-----------------------|-----------------------|
-----------------------|-----------------------|--2--2----2----2----2--|
--3--3----7----3----3--|--2--2----5----2----2--|--0--0----0----0----0--|
-----------------------|-----------------------|-----------------------|

------------------------|-----------------------|-----------------------|
------------------------|-----------------------|-----------------------|
------------------------|--5--5----5----5----5--|--7--7----7----7----7--|
--3--3----3--2--2----2--|--3--3----3----3----3--|--5--5----5----5----5--|
--0--0----0--0--0----0--|--3--3----3----3----3--|--5--5----5----5----5--|
------------------------|--3--3----3----3----3--|--5--5----5----5----5--|



[0:21]
--8-------------------|--8-------------------|--10-------------------|
---------8------------|---------8------------|----------8------------|
----------------10----|----------------10----|-----------------10----|
----------------------|----------------------|-----------------------|
----------------------|----------------------|-----------------------|
----------------------|----------------------|-----------------------|

--10-------------------|--7-------------------|--8-------------------|
----------8------------|---------8------------|---------8------------|
-----------------10----|----------------10----|----------------10----|
-----------------------|----------------------|----------------------|
-----------------------|----------------------|----------------------|
-----------------------|----------------------|----------------------|

--7-------------------|--10--------------------|--8-------------------|
---------8------------|----------10------------|---------8------------|
----------------10----|------------------10----|----------------10----|
----------------------|------------------------|----------------------|
----------------------|------------------------|----------------------|
----------------------|------------------------|----------------------|

--8-------------------|--10-------------------|--10-------------------|
---------8------------|----------8------------|----------8------------|
----------------10----|-----------------10----|-----------------10----|
----------------------|-----------------------|-----------------------|
----------------------|-----------------------|-----------------------|
----------------------|-----------------------|-----------------------|

--7-------------------|--8-------------------|--7-------------------|
---------8------------|---------8------------|---------8------------|
----------------10----|----------------10----|----------------10----|
----------------------|----------------------|----------------------|
----------------------|----------------------|----------------------|
----------------------|----------------------|----------------------|



                         [0:37]                 PM PM PM PM           
--10--------------------|--------------------|-----------------------|
----------10------------|--------------------|-----------------------|
------------------10----|--------------------|-----------------------|
------------------------|--------------------|-----------------------|
------------------------|--3--------0--------|--0--0--0--0-----------|
------------------------|--3--------0--------|--0--0--0--0-----------|

  PM PM PM PM    PM PM       PM PM PM PM                                
--------------------------|-----------------------|--------------------|
--------------------------|-----------------------|--------------------|
--------------------------|-----------------------|--------------------|
--------------------------|-----------------------|--------------------|
--0--0--0--0-----0--0-----|--0--0--0--0-----------|--3--------0--------|
--0--0--0--0-----0--0-----|--0--0--0--0-----------|--3--------0--------|

  PM PM PM PM             PM PM PM PM    PM PM       PM PM PM PM           
-----------------------|--------------------------|-----------------------|
-----------------------|--------------------------|-----------------------|
-----------------------|--------------------------|-----------------------|
-----------------------|--------------------------|-----------------------|
--0--0--0--0-----------|--0--0--0--0-----0--0-----|--0--0--0--0-----------|
--0--0--0--0-----------|--0--0--0--0-----0--0-----|--0--0--0--0-----------|

                       PM PM PM PM              PM PM PM PM    PM PM     
--------------------|------------------------|--------------------------|
--------------------|------------------------|--------------------------|
--------------------|------------------------|--------------------------|
--------------------|------------------------|--------------------------|
--3--------0--------|--0--0--0--0--8\--------|--0--0--0--0-----0--0-----|
--3--------0--------|--0--0--0--0--8\--------|--0--0--0--0-----0--0-----|

  PM PM PM PM                                  PM PM PM PM           
-----------------------|--------------------|-----------------------|
-----------------------|--------------------|-----------------------|
-----------------------|--------------------|-----------------------|
-----------------------|--------------------|-----------------------|
--0--0--0--0-----------|--3--------0--------|--0--0--0--0-----------|
--0--0--0--0-----------|--3--------0--------|--0--0--0--0-----------|

  PM PM PM PM    PM PM       PM PM PM PM                                
--------------------------|-----------------------|--------------------|
--------------------------|-----------------------|--------------------|
--------------------------|-----------------------|--------------------|
--------------------------|-----------------------|--------------------|
--0--0--0--0-----0--0-----|--0--0--0--0-----------|--3--------0--------|
--0--0--0--0-----0--0-----|--0--0--0--0-----------|--3--------0--------|

-------------------|-------------------|
-------------------|-------------------|
-------------------|-------------------|
-------------------|-------------------|
--0----------------|-------------------|
--0----------------|-------------------|

   Pick Scrape                                                       
------------------------------------|----------------------------------|
------------------------------------|----------------------------------|
------------------------------------|----------------------------------|
------------------------------------|----------------------------------|
--//--------------------------------|-//-------------------------------|
--//--------------------------------|-//-------------------------------|



[0:59]
-----------------------|-----------------------|-----------------------|
-----------------------|-----------------------|-----------------------|
-----------------------|-----------------------|-----------------------|
--7--7----7----7----7--|--5--5----5----5----5--|--9--9----9----9----9--|
--3--3----3----3----3--|--3--3----3----3----3--|--5--5----5----5----5--|
--3--3----3----3----3--|--3--3----3----3----3--|--5--5----5----5----5--|

-----------------------|----------------------------|-----------------------|
-----------------------|----------------------------|-----------------------|
-----------------------|----------------------------|-----------------------|
--7--7----7----7----7--|--10--10----10----10----10--|--9--9----9----9----9--|
--5--5----5----5----5--|---7---7-----7-----7-----7--|--7--7----7----7----7--|
--5--5----5----5----5--|---7---7-----7-----7-----7--|--7--7----7----7----7--|

----------------------------|-----------------------|-----------------------|
----------------------------|-----------------------|-----------------------|
----------------------------|-----------------------|-----------------------|
--10--10----10----10----10--|--9--9----9----9----9--|--7--7----7----7----7--|
---7---7-----7-----7-----7--|--7--7----7----7----7--|--3--3----3----3----3--|
---7---7-----7-----7-----7--|--7--7----7----7----7--|--3--3----3----3----3--|

-----------------------|-----------------------|-----------------------|
-----------------------|-----------------------|-----------------------|
-----------------------|-----------------------|-----------------------|
--5--5----5----5----5--|--9--9----9----9----9--|--7--7----7----7----7--|
--3--3----3----3----3--|--5--5----5----5----5--|--5--5----5----5----5--|
--3--3----3----3----3--|--5--5----5----5----5--|--5--5----5----5----5--|

----------------------------|-----------------------|
----------------------------|-----------------------|
----------------------------|-----------------------|
--10--10----10----10----10--|--9--9----9----9----9--|
---7---7-----7-----7-----7--|--7--7----7----7----7--|
---7---7-----7-----7-----7--|--7--7----7----7----7--|

----------------------------|-----------------------|
----------------------------|-----------------------|
----------------------------|-----------------------|
--10--10----10----10----10--|--9--9----9----9----9--|
---7---7-----7-----7-----7--|--7--7----7----7----7--|
---7---7-----7-----7-----7--|--7--7----7----7----7--|



[1:15]
----------------------------|----------------------------|
----------------------------|----------------------------|
--14--14----14----14----14--|--12--12----12----12----12--|
---x---x-----x-----x-----x--|---x---x-----x-----x-----x--|
--12--12----12----12----12--|--10--10----10----10----10--|
----------------------------|----------------------------|

----------------------------|----------------------------|
----------------------------|----------------------------|
--16--16----16----16----16--|--14--14----14----14----14--|
---x---x-----x-----x-----x--|---x---x-----x-----x-----x--|
--14--14----14----14----14--|--12--12----12----12----12--|
----------------------------|----------------------------|

----------------------------|----------------------------|
----------------------------|----------------------------|
--17--17----17----17----17--|--19--16----16----16----16--|
---x---x-----x-----x-----x--|---x---x-----x-----x-----x--|
--15--15----15----15----15--|--17--14----14----14----14--|
----------------------------|----------------------------|

----------------------------|----------------------------|
----------------------------|----------------------------|
--17--17----17----17----17--|--19--16----16----16----16--|
---x---x-----x-----x-----x--|---x---x-----x-----x-----x--|
--15--15----15----15----15--|--17--14----14----14----14--|
----------------------------|----------------------------|




[1:23]
--8-------------------|--8-------------------|--10-------------------|
---------8------------|---------8------------|----------8------------|
----------------10----|----------------10----|-----------------10----|
----------------------|----------------------|-----------------------|
----------------------|----------------------|-----------------------|
----------------------|----------------------|-----------------------|

--10-------------------|--7-------------------|--8-------------------|
----------8------------|---------8------------|---------8------------|
-----------------10----|----------------10----|----------------10----|
-----------------------|----------------------|----------------------|
-----------------------|----------------------|----------------------|
-----------------------|----------------------|----------------------|

--7-------------------|--10--------------------|--8-------------------|
---------8------------|----------10------------|---------8------------|
----------------10----|------------------10----|----------------10----|
----------------------|------------------------|----------------------|
----------------------|------------------------|----------------------|
----------------------|------------------------|----------------------|

--8-------------------|--10-------------------|--10-------------------|
---------8------------|----------8------------|----------8------------|
----------------10----|-----------------10----|-----------------10----|
----------------------|-----------------------|-----------------------|
----------------------|-----------------------|-----------------------|
----------------------|-----------------------|-----------------------|

    
--7-------------------|--8-------------------|--7-------------------|
---------8------------|---------8------------|---------8------------|
----------------10----|----------------10----|----------------10----|
----------------------|----------------------|----------------------|
----------------------|----------------------|----------------------|
----------------------|----------------------|----------------------|



                         [1:39]                 PM    PM    PM    PM           
--10--------------------|--------------------|--------------------------|-----|
----------10------------|--------------------|--------------------------|-----|
------------------10----|--------------------|--------------------------|-----|
------------------------|--------------------|--------------------------|-----|
------------------------|--3--------0--------|--0-----0-----0-----0-----|-----|
------------------------|--3--------0--------|--0-----0-----0-----0-----|-----|

        PM PM PM PM     PM PM PM PM        PM    PM    PM    PM     
-----|----------------------------------|--------------------------|
-----|----------------------------------|--------------------------|
-----|----------------------------------|--------------------------|
-----|----------------------------------|--------------------------|
-----|--0--0--0--0------0--0--0--0------|--0-----0-----0-----0-----|
-----|--0--0--0--0------0--0--0--0------|--0-----0-----0-----0-----|

       PM PM PM           PM PM PM PM     PM PM PM PM         
-----------------------|----------------------------------|
-----------------------|----------------------------------|
-----------------------|----------------------------------|
-----------------------|----------------------------------|
-------0--0--0---------|--0--0--0--0------0--0--0--0------|
-------0--0--0---------|--0--0--0--0------0--0--0--0------|

  PM PM PM PM     PM PM PM PM        PM    PM    PM    PM     
----------------------------------|--------------------------|
----------------------------------|--------------------------|
----------------------------------|--------------------------|
----------------------------------|--------------------------|
--0--0--0--0------0--0--0--0------|--0-----0-----0-----0-----|
--0--0--0--0------0--0--0--0------|--0-----0-----0-----0-----|

       PM PM PM           PM PM PM PM     PM PM PM PM      
-----------------------|----------------------------------|
-----------------------|----------------------------------|
-----------------------|----------------------------------|
-----------------------|----------------------------------|
-------0--0--0---------|--0--0--0--0------0--0--0--0------|
-------0--0--0---------|--0--0--0--0------0--0--0--0------|

  PM PM PM PM     PM PM PM PM        PM    PM    PM    PM     
----------------------------------|--------------------------|
----------------------------------|--------------------------|
----------------------------------|--------------------------|
----------------------------------|--------------------------|
--0--0--0--0------0--0--0--0------|--0-----0-----0-----0-----|
--0--0--0--0------0--0--0--0------|--0-----0-----0-----0-----|

       PM PM PM           PM PM PM PM     PM PM PM PM      
-----------------------|----------------------------------|
-----------------------|----------------------------------|
-----------------------|----------------------------------|
-----------------------|----------------------------------|
-------0--0--0---------|--0--0--0--0------0--0--0--0------|
-------0--0--0---------|--0--0--0--0------0--0--0--0------|

  PM PM PM PM     PM PM PM PM        PM    PM    PM    PM     
----------------------------------|--------------------------|
----------------------------------|--------------------------|
----------------------------------|--------------------------|
----------------------------------|--------------------------|
--0--0--0--0------0--0--0--0------|--0-----0-----0-----0-----|
--0--0--0--0------0--0--0--0------|--0-----0-----0-----0-----|



[1:58]
----------------------|---------------------|----------------------|
----------------------|---------6-----------|-------5--------------|
----------------------|--9-------------7----|------------5---------|
-------0----2----3----|---------------------|--0--------------3----|
----------------------|---------------------|----------------------|
----------------------|---------------------|----------------------|

---------------------|----------------------|---------------------|
--5------------------|----------------------|---------6-----------|
---------5-----------|----------------------|--9-------------7----|
----------------3----|-------0----2----3----|---------------------|
---------------------|----------------------|---------------------|
---------------------|----------------------|---------------------|

----------------------|---------------------|----------------------|
-------5--------------|--5------------------|----------------------|
------------5---------|---------5-----------|----------------------|
--0--------------3----|----------------3----|-------0----2----3----|
----------------------|---------------------|----------------------|
----------------------|---------------------|----------------------|

---------------------|----------------------|---------------------|
---------6-----------|-------5--------------|--5------------------|
--9-------------7----|------------5---------|---------5-----------|
---------------------|--0--------------3----|----------------3----|
---------------------|----------------------|---------------------|
---------------------|----------------------|---------------------|
     
----------------------|---------------------|----------------------|
----------------------|---------6-----------|-------5--------------|
----------------------|--9-------------7----|------------5---------|
-------0----2----3----|---------------------|--0--------------3----|
----------------------|---------------------|----------------------|
----------------------|---------------------|----------------------|



        [2:15]
-------------------|-------------------|-------------------|-------------------|
-------------------|-------------------|-------------------|-------------------|
-------------------|-------------------|-------------------|-------------------|
-------------------|-------------------|-------------------|-------------------|
-------------------|-------------------|-------------------|--0----------------|
-------------------|-------------------|-------------------|--0----------------|

-------------------|-----------------------|-----------------------|
-------------------|-----------------------|-----------------------|
-------------------|-----------------------|-----------------------|
-------------------|-----------------------|-----------------------|
-------------------|--3--3----7----3----3--|--2--2----5----2----2--|
-------------------|-----------------------|-----------------------|

-----------------------|------------------------|-----------------------|
-----------------------|------------------------|-----------------------|
-----------------------|------------------------|-----------------------|
--2--2----2----2----2--|--3--3----3--2--2----2--|-----------------------|
--0--0----0----0----0--|--0--0----0--0--0----0--|--3--3----7----3----3--|
-----------------------|------------------------|-----------------------|

-----------------------|-----------------------|------------------------|
-----------------------|-----------------------|------------------------|
-----------------------|-----------------------|------------------------|
-----------------------|--2--2----2----2----2--|--3--3----3--2--2----2--|
--2--2----5----2----2--|--0--0----0----0----0--|--0--0----0--0--0----0--|
-----------------------|-----------------------|------------------------|

-----------------------|-----------------------|-----------------------|
-----------------------|-----------------------|-----------------------|
--5--5----5----5----5--|--7--7----7----7----7--|-----------------------|
--3--3----3----3----3--|--5--5----5----5----5--|--2--2----2----2----2--|
--3--3----3----3----3--|--5--5----5----5----5--|--0--0----0----0----0--|
--3--3----3----3----3--|--5--5----5----5----5--|-----------------------|

------------------------|-----------------------|-----------------------|
------------------------|-----------------------|-----------------------|
------------------------|-----------------------|-----------------------|
--3--3----3--2--2----2--|-----------------------|-----------------------|
--0--0----0--0--0----0--|--3--3----7----3----3--|--2--2----5----2----2--|
------------------------|-----------------------|-----------------------|

-----------------------|------------------------|-----------------------|
-----------------------|------------------------|-----------------------|
-----------------------|------------------------|--5--5----5----5----5--|
--2--2----2----2----2--|--3--3----3--2--2----2--|--3--3----3----3----3--|
--0--0----0----0----0--|--0--0----0--0--0----0--|--3--3----3----3----3--|
-----------------------|------------------------|--3--3----3----3----3--|
        


        [2:35]
-----------------------|--8-------------------|--8-------------------|
-----------------------|---------8------------|---------8------------|
--7--7----7----7----7--|----------------10----|----------------10----|
--5--5----5----5----5--|----------------------|----------------------|
--5--5----5----5----5--|----------------------|----------------------|
--5--5----5----5----5--|----------------------|----------------------|

--10-------------------|--10-------------------|--7-------------------|
----------8------------|----------8------------|---------8------------|
-----------------10----|-----------------10----|----------------10----|
-----------------------|-----------------------|----------------------|
-----------------------|-----------------------|----------------------|
-----------------------|-----------------------|----------------------|

--8-------------------|--7-------------------|--10--------------------|
---------8------------|---------8------------|----------10------------|
----------------10----|----------------10----|------------------10----|
----------------------|----------------------|------------------------|
----------------------|----------------------|------------------------|
----------------------|----------------------|------------------------|

--8-------------------|--8-------------------|--10-------------------|
---------8------------|---------8------------|----------8------------|
----------------10----|----------------10----|-----------------10----|
----------------------|----------------------|-----------------------|
----------------------|----------------------|-----------------------|
----------------------|----------------------|-----------------------|

--10-------------------|--7-------------------|--8-------------------|
----------8------------|---------8------------|---------8------------|
-----------------10----|----------------10----|----------------10----|
-----------------------|----------------------|----------------------|
-----------------------|----------------------|----------------------|
-----------------------|----------------------|----------------------|

--7-------------------|--10--------------------|--8-------------------|
---------8------------|----------10------------|---------8------------|
----------------10----|------------------10----|----------------10----|
----------------------|------------------------|----------------------|
----------------------|------------------------|----------------------|
----------------------|------------------------|----------------------|

--8-------------------|--10-------------------|--10-------------------|
---------8------------|----------8------------|----------8------------|
----------------10----|-----------------10----|-----------------10----|
----------------------|-----------------------|-----------------------|
----------------------|-----------------------|-----------------------|
----------------------|-----------------------|-----------------------|

--7-------------------|--8-------------------|--7-------------------|
---------8------------|---------8------------|---------8------------|
----------------10----|----------------10----|----------------10----|
----------------------|----------------------|----------------------|
----------------------|----------------------|----------------------|
----------------------|----------------------|----------------------|

--10--------------------|--8-------------------|--8-------------------|
----------10------------|---------8------------|---------8------------|
------------------10----|----------------10----|----------------10----|
------------------------|----------------------|----------------------|
------------------------|----------------------|----------------------|
------------------------|----------------------|----------------------|

--10-------------------|--10-------------------|--7-------------------|
----------8------------|----------8------------|---------8------------|
-----------------10----|-----------------10----|----------------10----|
-----------------------|-----------------------|----------------------|
-----------------------|-----------------------|----------------------|
-----------------------|-----------------------|----------------------|

--8-------------------|--7-------------------|--10--------------------|
---------8------------|---------8------------|----------10------------|
----------------10----|----------------10----|------------------10----|
----------------------|----------------------|------------------------|
----------------------|----------------------|------------------------|
----------------------|----------------------|------------------------|



[3:08]
------------------------|--------------------------||
------------------------|--------------------------||
------------------------|--------------------------||
------------------------|--------------------------||
--0-0-0-0---------------|--0-----0-----0-----0-----||
--0-0-0-0---------------|--0-----0-----0-----0-----||





GUITAR 2


C ||-------|-------------------------------|----------------------------------|
G ||-------|-------------------------------|----------------------------------|
D#||-------|-------------------------------|----------------------------------|
A#||-------|-------------------------------|----------------------------------|
F ||-------|-------------------------------|----------------------------------|
A#||-------|--7----7-7-7-7-7-7-7-7-7-7-7-7-|--7-7-7-7-7-7-7-7-7-7-7-7-7-7-7-7-|

-------|-------|-----------------------|------------------------|
-------|-------|-----------------------|------------------------|
-------|-------|-----------------------|------------------------|
-------|-------|--2--2----2----2----2--|--3--3----3--2--2----2--|
-------|-------|--0--0----0----0----0--|--0--0----0--0--0----0--|
-------|-------|-----------------------|------------------------|

-----------------------|-----------------------|-----------------------|
-----------------------|-----------------------|-----------------------|
-----------------------|-----------------------|-----------------------|
-----------------------|-----------------------|--2--2----2----2----2--|
--3--3----7----3----3--|--2--2----5----2----2--|--0--0----0----0----0--|
-----------------------|-----------------------|-----------------------|

------------------------|-----------------------|-----------------------|
------------------------|-----------------------|-----------------------|
------------------------|--5--5----5----5----5--|--7--7----7----7----7--|
--3--3----3--2--2----2--|--3--3----3----3----3--|--5--5----5----5----5--|
--0--0----0--0--0----0--|--3--3----3----3----3--|--5--5----5----5----5--|
------------------------|--3--3----3----3----3--|--5--5----5----5----5--|

-----------------------|------------------------|-----------------------|
-----------------------|------------------------|-----------------------|
-----------------------|------------------------|-----------------------|
--2--2----2----2----2--|--3--3----3--2--2----2--|-----------------------|
--0--0----0----0----0--|--0--0----0--0--0----0--|--3--3----7----3----3--|
-----------------------|------------------------|-----------------------|

-----------------------|-----------------------|------------------------|
-----------------------|-----------------------|------------------------|
-----------------------|-----------------------|------------------------|
-----------------------|--2--2----2----2----2--|--3--3----3--2--2----2--|
--2--2----5----2----2--|--0--0----0----0----0--|--0--0----0--0--0----0--|
-----------------------|-----------------------|------------------------|



                                                   [0:21]
-----------------------|-----------------------|--------------------------|
-----------------------|-----------------------|--------------------------|
--5--5----5----5----5--|--7--7----7----7----7--|--------------------------|
--3--3----3----3----3--|--5--5----5----5----5--|--5--5--5--5--5--5--5--5--|
--3--3----3----3----3--|--5--5----5----5----5--|--3--3--3--3--3--3--3--3--|
--3--3----3----3----3--|--5--5----5----5----5--|--3--3--3--3--3--3--3--3--|

--------------------------|--------------------------|
--------------------------|--------------------------|
--------------------------|--------------------------|
--5--5--5--5--5--5--5--5--|--0--0--0--0--0--0--0--0--|
--3--3--3--3--3--3--3--3--|--0--0--0--0--0--0--0--0--|
--3--3--3--3--3--3--3--3--|--0--0--0--0--0--0--0--0--|

--------------------------|--------------------------|
--------------------------|--------------------------|
--------------------------|--------------------------|
--0--0--0--0--0--0--0--0--|--9--9--9--9--9--9--9--9--|
--0--0--0--0--0--0--0--0--|--7--7--7--7--7--7--7--7--|
--0--0--0--0--0--0--0--0--|--7--7--7--7--7--7--7--7--|

----------------------------------|--------------------------|
----------------------------------|--------------------------|
----------------------------------|--------------------------|
--10--10--10--10--10--10--10--10--|--9--9--9--9--9--9--9--9--|
---7---7---7---7---7---7---7---7--|--7--7--7--7--7--7--7--7--|
---7---7---7---7---7---7---7---7--|--7--7--7--7--7--7--7--7--|

----------------------------------|--------------------------|
----------------------------------|--------------------------|
----------------------------------|--------------------------|
--12--12--12--12--12--12--12--12--|--5--5--5--5--5--5--5--5--|
--10--10--10--10--10--10--10--10--|--3--3--3--3--3--3--3--3--|
--10--10--10--10--10--10--10--10--|--3--3--3--3--3--3--3--3--|

--------------------------|--------------------------|
--------------------------|--------------------------|
--------------------------|--------------------------|
--5--5--5--5--5--5--5--5--|--0--0--0--0--0--0--0--0--|
--3--3--3--3--3--3--3--3--|--0--0--0--0--0--0--0--0--|
--3--3--3--3--3--3--3--3--|--0--0--0--0--0--0--0--0--|

--------------------------|--------------------------|
--------------------------|--------------------------|
--------------------------|--------------------------|
--0--0--0--0--0--0--0--0--|--9--9--9--9--9--9--9--9--|
--0--0--0--0--0--0--0--0--|--7--7--7--7--7--7--7--7--|
--0--0--0--0--0--0--0--0--|--7--7--7--7--7--7--7--7--|

----------------------------------|--------------------------|
----------------------------------|--------------------------|
----------------------------------|--------------------------|
--10--10--10--10--10--10--10--10--|--9--9--9--9--9--9--9--9--|
---7---7---7---7---7---7---7---7--|--7--7--7--7--7--7--7--7--|
---7---7---7---7---7---7---7---7--|--7--7--7--7--7--7--7--7--|



                            [0:37]               PM PM PM PM           
--------------------------|--------------------|-----------------------|
--------------------------|--------------------|-----------------------|
--------------------------|--------------------|-----------------------|
--7--7--7--7--7--7--7--7--|--------------------|-----------------------|
--5--5--5--5--5--5--5--5--|--3--------0--------|--0--0--0--0-----------|
--5--5--5--5--5--5--5--5--|--3--------0--------|--0--0--0--0-----------|

  PM PM PM PM    PM PM       PM PM PM PM                                
--------------------------|-----------------------|--------------------|
--------------------------|-----------------------|--------------------|
--------------------------|-----------------------|--------------------|
--------------------------|-----------------------|--------------------|
--0--0--0--0-----0--0-----|--0--0--0--0-----------|--3--------0--------|
--0--0--0--0-----0--0-----|--0--0--0--0-----------|--3--------0--------|

  PM PM PM PM             PM PM PM PM    PM PM       PM PM PM PM           
-----------------------|--------------------------|-----------------------|
-----------------------|--------------------------|-----------------------|
-----------------------|--------------------------|-----------------------|
-----------------------|--------------------------|-----------------------|
--0--0--0--0-----------|--0--0--0--0-----0--0-----|--0--0--0--0-----------|
--0--0--0--0-----------|--0--0--0--0-----0--0-----|--0--0--0--0-----------|

                       PM PM PM PM              PM PM PM PM    PM PM     
--------------------|------------------------|--------------------------|
--------------------|------------------------|--------------------------|
--------------------|------------------------|--------------------------|
--------------------|------------------------|--------------------------|
--3--------0--------|--0--0--0--0--8\--------|--0--0--0--0-----0--0-----|
--3--------0--------|--0--0--0--0--8\--------|--0--0--0--0-----0--0-----|

  PM PM PM PM                                  PM PM PM PM           
-----------------------|--------------------|-----------------------|
-----------------------|--------------------|-----------------------|
-----------------------|--------------------|-----------------------|
-----------------------|--------------------|-----------------------|
--0--0--0--0-----------|--3--------0--------|--0--0--0--0-----------|
--0--0--0--0-----------|--3--------0--------|--0--0--0--0-----------|

  PM PM PM PM    PM PM       PM PM PM PM                                
--------------------------|-----------------------|--------------------|
--------------------------|-----------------------|--------------------|
--------------------------|-----------------------|--------------------|
--------------------------|-----------------------|--------------------|
--0--0--0--0-----0--0-----|--0--0--0--0-----------|--3--------0--------|
--0--0--0--0-----0--0-----|--0--0--0--0-----------|--3--------0--------|



[0:55]
-------------------|-------------------|
-------------------|-------------------|
-------------------|-------------------|
-------------------|-------------------|
--0----------------|-------------------|
--0----------------|-------------------|

   Pick Scrape                                                       
------------------------------------|----------------------------------|
------------------------------------|----------------------------------|
------------------------------------|----------------------------------|
------------------------------------|----------------------------------|
--//--------------------------------|-//-------------------------------|
--//--------------------------------|-//-------------------------------|



[0:58]
-----------------------|-----------------------|-----------------------|
-----------------------|-----------------------|-----------------------|
-----------------------|-----------------------|-----------------------|
--7--7----7----7----7--|--5--5----5----5----5--|--9--9----9----9----9--|
--3--3----3----3----3--|--3--3----3----3----3--|--5--5----5----5----5--|
--3--3----3----3----3--|--3--3----3----3----3--|--5--5----5----5----5--|

-----------------------|----------------------------|-----------------------|
-----------------------|----------------------------|-----------------------|
-----------------------|----------------------------|-----------------------|
--7--7----7----7----7--|--10--10----10----10----10--|--9--9----9----9----9--|
--5--5----5----5----5--|---7---7-----7-----7-----7--|--7--7----7----7----7--|
--5--5----5----5----5--|---7---7-----7-----7-----7--|--7--7----7----7----7--|

----------------------------|-----------------------|-----------------------|
----------------------------|-----------------------|-----------------------|
----------------------------|-----------------------|-----------------------|
--10--10----10----10----10--|--9--9----9----9----9--|--7--7----7----7----7--|
---7---7-----7-----7-----7--|--7--7----7----7----7--|--3--3----3----3----3--|
---7---7-----7-----7-----7--|--7--7----7----7----7--|--3--3----3----3----3--|

-----------------------|-----------------------|-----------------------|
-----------------------|-----------------------|-----------------------|
-----------------------|-----------------------|-----------------------|
--5--5----5----5----5--|--9--9----9----9----9--|--7--7----7----7----7--|
--3--3----3----3----3--|--5--5----5----5----5--|--5--5----5----5----5--|
--3--3----3----3----3--|--5--5----5----5----5--|--5--5----5----5----5--|

----------------------------|-----------------------|
----------------------------|-----------------------|
----------------------------|-----------------------|
--10--10----10----10----10--|--9--9----9----9----9--|
---7---7-----7-----7-----7--|--7--7----7----7----7--|
---7---7-----7-----7-----7--|--7--7----7----7----7--|

----------------------------|-----------------------|-----------------------|
----------------------------|-----------------------|-----------------------|
----------------------------|-----------------------|-----------------------|
--10--10----10----10----10--|--9--9----9----9----9--|--7--7----7----7----7--|
---7---7-----7-----7-----7--|--7--7----7----7----7--|--3--3----3----3----3--|
---7---7-----7-----7-----7--|--7--7----7----7----7--|--3--3----3----3----3--|

-----------------------|-----------------------|-----------------------|
-----------------------|-----------------------|-----------------------|
-----------------------|-----------------------|-----------------------|
--5--5----5----5----5--|--9--9----9----9----9--|--7--7----7----7----7--|
--3--3----3----3----3--|--5--5----5----5----5--|--5--5----5----5----5--|
--3--3----3----3----3--|--5--5----5----5----5--|--5--5----5----5----5--|

----------------------------|-----------------------|
----------------------------|-----------------------|
----------------------------|-----------------------|
--10--10----10----10----10--|--9--9----9----9----9--|
---7---7-----7-----7-----7--|--7--7----7----7----7--|
---7---7-----7-----7-----7--|--7--7----7----7----7--|



        [1:22]
----------------------------|-----------------------|--------------------------|
----------------------------|-----------------------|--------------------------|
----------------------------|-----------------------|--------------------------|
--10--10----10----10----10--|--9--9----9----9----9--|--5--5--5--5--5--5--5--5--|
---7---7-----7-----7-----7--|--7--7----7----7----7--|--3--3--3--3--3--3--3--3--|
---7---7-----7-----7-----7--|--7--7----7----7----7--|--3--3--3--3--3--3--3--3--|

--------------------------|--------------------------|
--------------------------|--------------------------|
--------------------------|--------------------------|
--5--5--5--5--5--5--5--5--|--0--0--0--0--0--0--0--0--|
--3--3--3--3--3--3--3--3--|--0--0--0--0--0--0--0--0--|
--3--3--3--3--3--3--3--3--|--0--0--0--0--0--0--0--0--|

--------------------------|--------------------------|
--------------------------|--------------------------|
--------------------------|--------------------------|
--0--0--0--0--0--0--0--0--|--9--9--9--9--9--9--9--9--|
--0--0--0--0--0--0--0--0--|--7--7--7--7--7--7--7--7--|
--0--0--0--0--0--0--0--0--|--7--7--7--7--7--7--7--7--|

----------------------------------|--------------------------|
----------------------------------|--------------------------|
----------------------------------|--------------------------|
--10--10--10--10--10--10--10--10--|--9--9--9--9--9--9--9--9--|
---7---7---7---7---7---7---7---7--|--7--7--7--7--7--7--7--7--|
---7---7---7---7---7---7---7---7--|--7--7--7--7--7--7--7--7--|

----------------------------------|--------------------------|
----------------------------------|--------------------------|
----------------------------------|--------------------------|
--12--12--12--12--12--12--12--12--|--5--5--5--5--5--5--5--5--|
--10--10--10--10--10--10--10--10--|--3--3--3--3--3--3--3--3--|
--10--10--10--10--10--10--10--10--|--3--3--3--3--3--3--3--3--|

--------------------------|--------------------------|
--------------------------|--------------------------|
--------------------------|--------------------------|
--5--5--5--5--5--5--5--5--|--0--0--0--0--0--0--0--0--|
--3--3--3--3--3--3--3--3--|--0--0--0--0--0--0--0--0--|
--3--3--3--3--3--3--3--3--|--0--0--0--0--0--0--0--0--|

--------------------------|--------------------------|
--------------------------|--------------------------|
--------------------------|--------------------------|
--0--0--0--0--0--0--0--0--|--9--9--9--9--9--9--9--9--|
--0--0--0--0--0--0--0--0--|--7--7--7--7--7--7--7--7--|
--0--0--0--0--0--0--0--0--|--7--7--7--7--7--7--7--7--|

----------------------------------|--------------------------|
----------------------------------|--------------------------|
----------------------------------|--------------------------|
--10--10--10--10--10--10--10--10--|--9--9--9--9--9--9--9--9--|
---7---7---7---7---7---7---7---7--|--7--7--7--7--7--7--7--7--|
---7---7---7---7---7---7---7---7--|--7--7--7--7--7--7--7--7--|

                            [1:39]                PM    PM    PM    PM     
--------------------------|--------------------|--------------------------|
--------------------------|--------------------|--------------------------|
--------------------------|--------------------|--------------------------|
--7--7--7--7--7--7--7--7--|--------------------|--------------------------|
--5--5--5--5--5--5--5--5--|--3--------0--------|--0-----0-----0-----0-----|
--5--5--5--5--5--5--5--5--|--3--------0--------|--0-----0-----0-----0-----|

              PM PM PM PM     PM PM PM PM        PM    PM    PM    PM     
-----|-----|----------------------------------|--------------------------|
-----|-----|----------------------------------|--------------------------|
-----|-----|----------------------------------|--------------------------|
-----|-----|----------------------------------|--------------------------|
-----|-----|--0--0--0--0------0--0--0--0------|--0-----0-----0-----0-----|
-----|-----|--0--0--0--0------0--0--0--0------|--0-----0-----0-----0-----|

       PM PM PM           PM PM PM PM     PM PM PM PM      
-----------------------|----------------------------------|
-----------------------|----------------------------------|
-----------------------|----------------------------------|
-----------------------|----------------------------------|
-------0--0--0---------|--0--0--0--0------0--0--0--0------|
-------0--0--0---------|--0--0--0--0------0--0--0--0------|

  PM PM PM PM     PM PM PM PM        PM    PM    PM    PM     
----------------------------------|--------------------------|
----------------------------------|--------------------------|
----------------------------------|--------------------------|
----------------------------------|--------------------------|
--0--0--0--0------0--0--0--0------|--0-----0-----0-----0-----|
--0--0--0--0------0--0--0--0------|--0-----0-----0-----0-----|

       PM PM PM           PM PM PM PM     PM PM PM PM      
-----------------------|----------------------------------|
-----------------------|----------------------------------|
-----------------------|----------------------------------|
-----------------------|----------------------------------|
-------0--0--0---------|--0--0--0--0------0--0--0--0------|
-------0--0--0---------|--0--0--0--0------0--0--0--0------|

  PM PM PM PM     PM PM PM PM        PM    PM    PM    PM     
----------------------------------|--------------------------|
----------------------------------|--------------------------|
----------------------------------|--------------------------|
----------------------------------|--------------------------|
--0--0--0--0------0--0--0--0------|--0-----0-----0-----0-----|
--0--0--0--0------0--0--0--0------|--0-----0-----0-----0-----|

       PM PM PM           PM PM PM PM     PM PM PM PM      
-----------------------|----------------------------------|
-----------------------|----------------------------------|
-----------------------|----------------------------------|
-----------------------|----------------------------------|
-------0--0--0---------|--0--0--0--0------0--0--0--0------|
-------0--0--0---------|--0--0--0--0------0--0--0--0------|

  PM PM PM PM     PM PM PM PM        PM    PM    PM    PM                     
----------------------------------|--------------------------|-------|-------|
----------------------------------|--------------------------|-------|-------|
----------------------------------|--------------------------|-------|-------|
----------------------------------|--------------------------|-------|-------|
--0--0--0--0------0--0--0--0------|--0-----0-----0-----0-----|-------|-------|
--0--0--0--0------0--0--0--0------|--0-----0-----0-----0-----|-------|-------|



[2:00]
  PM    PM    PM                         PM    PM          
-------------------------|-------|------------------------|
-------------------------|-------|------------------------|
-------------------------|-------|------------------------|
-------------------------|-------|------------------------|
--0-----0-----0----------|-------|-------0-----0----------|
--0-----0-----0----------|-------|-------0-----0----------|

       PM    PM            PM    PM    PM                  
------------------------|-------------------------|-------|
------------------------|-------------------------|-------|
------------------------|-------------------------|-------|
------------------------|-------------------------|-------|
-------0-----0----------|--0-----0-----0----------|-------|
-------0-----0----------|--0-----0-----0----------|-------|

       PM    PM                 PM    PM            PM    PM    PM          
------------------------|------------------------|-------------------------|
------------------------|------------------------|-------------------------|
------------------------|------------------------|-------------------------|
------------------------|------------------------|-------------------------|
-------0-----0----------|-------0-----0----------|--0-----0-----0----------|
-------0-----0----------|-------0-----0----------|--0-----0-----0----------|

               PM    PM                 PM    PM          
-------|------------------------|------------------------|
-------|------------------------|------------------------|
-------|------------------------|------------------------|
-------|------------------------|------------------------|
-------|-------0-----0----------|-------0-----0----------|
-------|-------0-----0----------|-------0-----0----------|

  PM    PM    PM            PM    PM    PM    PM            PM    PM          
-------------------------|--------------------------|------------------------|
-------------------------|--------------------------|------------------------|
-------------------------|--------------------------|------------------------|
-------------------------|--------------------------|------------------------|
--0-----0-----0----------|--0-----0-----0-----0-----|-------0-----0----------|
--0-----0-----0----------|--0-----0-----0-----0-----|-------0-----0----------|

  PM PM PM PM     PM PM PM PM                                                               
----------------------------------|-------------------|-------------------|
----------------------------------|-------------------|-------------------|
----------------------------------|-------------------|-------------------|
----------------------------------|-------------------|-------------------|
--0--0--0--0------0--0--0--0------|--0----------------|-------------------|
--0--0--0--0------0--0--0--0------|--0----------------|-------------------|



        [2:19]
-------|-------|-----------------------|------------------------|
-------|-------|-----------------------|------------------------|
-------|-------|-----------------------|------------------------|
-------|-------|--2--2----2----2----2--|--3--3----3--2--2----2--|
-------|-------|--0--0----0----0----0--|--0--0----0--0--0----0--|
-------|-------|-----------------------|------------------------|

-----------------------|-----------------------|-----------------------|
-----------------------|-----------------------|-----------------------|
-----------------------|-----------------------|-----------------------|
-----------------------|-----------------------|--2--2----2----2----2--|
--3--3----5----3----3--|--2--2----5----2----2--|--0--0----0----0----0--|
-----------------------|-----------------------|-----------------------|

------------------------|-----------------------|-----------------------|
------------------------|-----------------------|-----------------------|
------------------------|--5--5----5----5----5--|--7--7----7----7----7--|
--3--3----3--2--2----2--|--3--3----3----3----3--|--5--5----5----5----5--|
--0--0----0--0--0----0--|--3--3----3----3----3--|--5--5----5----5----5--|
------------------------|--3--3----3----3----3--|--5--5----5----5----5--|

-----------------------|------------------------|-----------------------|
-----------------------|------------------------|-----------------------|
-----------------------|------------------------|-----------------------|
--2--2----2----2----2--|--3--3----3--2--2----2--|-----------------------|
--0--0----0----0----0--|--0--0----0--0--0----0--|--3--3----5----3----3--|
-----------------------|------------------------|-----------------------|

-----------------------|-----------------------|------------------------|
-----------------------|-----------------------|------------------------|
-----------------------|-----------------------|------------------------|
-----------------------|--2--2----2----2----2--|--3--3----3--2--2----2--|
--2--2----5----2----2--|--0--0----0----0----0--|--0--0----0--0--0----0--|
-----------------------|-----------------------|------------------------|
      [2:36]
-----------------------|-----------------------|--------------------------|
-----------------------|-----------------------|--------------------------|
--5--5----5----5----5--|--7--7----7----7----7--|--------------------------|
--3--3----3----3----3--|--5--5----5----5----5--|--5--5--5--5--5--5--5--5--|
--3--3----3----3----3--|--5--5----5----5----5--|--3--3--3--3--3--3--3--3--|
--3--3----3----3----3--|--5--5----5----5----5--|--3--3--3--3--3--3--3--3--|

--------------------------|--------------------------|
--------------------------|--------------------------|
--------------------------|--------------------------|
--5--5--5--5--5--5--5--5--|--0--0--0--0--0--0--0--0--|
--3--3--3--3--3--3--3--3--|--0--0--0--0--0--0--0--0--|
--3--3--3--3--3--3--3--3--|--0--0--0--0--0--0--0--0--|

--------------------------|--------------------------|
--------------------------|--------------------------|
--------------------------|--------------------------|
--0--0--0--0--0--0--0--0--|--9--9--9--9--9--9--9--9--|
--0--0--0--0--0--0--0--0--|--7--7--7--7--7--7--7--7--|
--0--0--0--0--0--0--0--0--|--7--7--7--7--7--7--7--7--|

----------------------------------|--------------------------|
----------------------------------|--------------------------|
----------------------------------|--------------------------|
--10--10--10--10--10--10--10--10--|--9--9--9--9--9--9--9--9--|
---7---7---7---7---7---7---7---7--|--7--7--7--7--7--7--7--7--|
---7---7---7---7---7---7---7---7--|--7--7--7--7--7--7--7--7--|

----------------------------------|--------------------------|
----------------------------------|--------------------------|
----------------------------------|--------------------------|
--12--12--12--12--12--12--12--12--|--5--5--5--5--5--5--5--5--|
--10--10--10--10--10--10--10--10--|--3--3--3--3--3--3--3--3--|
--10--10--10--10--10--10--10--10--|--3--3--3--3--3--3--3--3--|

--------------------------|--------------------------|
--------------------------|--------------------------|
--------------------------|--------------------------|
--5--5--5--5--5--5--5--5--|--0--0--0--0--0--0--0--0--|
--3--3--3--3--3--3--3--3--|--0--0--0--0--0--0--0--0--|
--3--3--3--3--3--3--3--3--|--0--0--0--0--0--0--0--0--|

--------------------------|--------------------------|
--------------------------|--------------------------|
--------------------------|--------------------------|
--0--0--0--0--0--0--0--0--|--9--9--9--9--9--9--9--9--|
--0--0--0--0--0--0--0--0--|--7--7--7--7--7--7--7--7--|
--0--0--0--0--0--0--0--0--|--7--7--7--7--7--7--7--7--|

----------------------------------|--------------------------|
----------------------------------|--------------------------|
----------------------------------|--------------------------|
--10--10--10--10--10--10--10--10--|--9--9--9--9--9--9--9--9--|
---7---7---7---7---7---7---7---7--|--7--7--7--7--7--7--7--7--|
---7---7---7---7---7---7---7---7--|--7--7--7--7--7--7--7--7--|

--------------------------|--------------------------|
--------------------------|--------------------------|
--------------------------|--------------------------|
--7--7--7--7--7--7--7--7--|--5--5--5--5--5--5--5--5--|
--5--5--5--5--5--5--5--5--|--3--3--3--3--3--3--3--3--|
--5--5--5--5--5--5--5--5--|--3--3--3--3--3--3--3--3--|

--------------------------|--------------------------|
--------------------------|--------------------------|
--------------------------|--------------------------|
--5--5--5--5--5--5--5--5--|--0--0--0--0--0--0--0--0--|
--3--3--3--3--3--3--3--3--|--0--0--0--0--0--0--0--0--|
--3--3--3--3--3--3--3--3--|--0--0--0--0--0--0--0--0--|

--------------------------|--------------------------|
--------------------------|--------------------------|
--------------------------|--------------------------|
--0--0--0--0--0--0--0--0--|--9--9--9--9--9--9--9--9--|
--0--0--0--0--0--0--0--0--|--7--7--7--7--7--7--7--7--|
--0--0--0--0--0--0--0--0--|--7--7--7--7--7--7--7--7--|

----------------------------------|--------------------------|
----------------------------------|--------------------------|
----------------------------------|--------------------------|
--10--10--10--10--10--10--10--10--|--9--9--9--9--9--9--9--9--|
---7---7---7---7---7---7---7---7--|--7--7--7--7--7--7--7--7--|
---7---7---7---7---7---7---7---7--|--7--7--7--7--7--7--7--7--|

----------------------------------|--------------------------|
----------------------------------|--------------------------|
----------------------------------|--------------------------|
--12--12--12--12--12--12--12--12--|--5--5--5--5--5--5--5--5--|
--10--10--10--10--10--10--10--10--|--3--3--3--3--3--3--3--3--|
--10--10--10--10--10--10--10--10--|--3--3--3--3--3--3--3--3--|

--------------------------|--------------------------|
--------------------------|--------------------------|
--------------------------|--------------------------|
--5--5--5--5--5--5--5--5--|--0--0--0--0--0--0--0--0--|
--3--3--3--3--3--3--3--3--|--0--0--0--0--0--0--0--0--|
--3--3--3--3--3--3--3--3--|--0--0--0--0--0--0--0--0--|

--------------------------|--------------------------|
--------------------------|--------------------------|
--------------------------|--------------------------|
--0--0--0--0--0--0--0--0--|--9--9--9--9--9--9--9--9--|
--0--0--0--0--0--0--0--0--|--7--7--7--7--7--7--7--7--|
--0--0--0--0--0--0--0--0--|--7--7--7--7--7--7--7--7--|

----------------------------------|--------------------------|
----------------------------------|--------------------------|
----------------------------------|--------------------------|
--10--10--10--10--10--10--10--10--|--9--9--9--9--9--9--9--9--|
---7---7---7---7---7---7---7---7--|--7--7--7--7--7--7--7--7--|
---7---7---7---7---7---7---7---7--|--7--7--7--7--7--7--7--7--|



        [3:08]
----------------------------------|------------------------|
----------------------------------|------------------------|
----------------------------------|------------------------|
--12--12--12--12--12--12--12--12--|------------------------|
--10--10--10--10--10--10--10--10--|-----------0-0-0-0------|
--10--10--10--10--10--10--10--10--|-----------0-0-0-0------|

--------------------------|-----||
--------------------------|-----||
--------------------------|-----||
--------------------------|-----||
--0-----0-----0-----0-----|-----||
--0-----0-----0-----0-----|-----||



Tablature Legend
----------------
PM - palm mute
b - bend
L - tied note
x - dead note
g - grace note
(n) - ghost note
> - accentuded note
PH - pitch harmonic
h - hammer on
p - pull off
comments
We did not receive enough feedback on this tab! Please rate:
print report bad tab
1 2 3 4 5
I want to post or [tab]
guest
You may want to rate the tab now too:
select rating
Please do not post tabs as comments. Select "correction" instead!