Oops, an error
Loading. Please wait.

The Great Unknown Tab

ver1
ver1

Whole song

Interactive

More versions @911Tabs.com
4,025 views 69 this week
2 commentsread comments
1 2 3 4 5
accurate
x 1
Autoscroll
+/-
esc
set tempo
stop
Contributor
Tuning
B F# B E G# C#
Hey! There's an official Ultimate Guitar app which is ideal
for learning songs when you're away from computer. Get the app
WARNING: You are trying to view
                                    content from Ultimate-Guitar.com
                                    in an unauthorized application,
                                    which is prohibited.

                                    Please use an official Ultimate
                                    Guitar Tabs application for iPhone,
                                    iPad or Android to access legitimate
                                    chords, guitar, bass, and drum tabs
                                    from Ultimate-Guitar.com database.

                                    Type "ultimate guitar tabs" in Apple
                                    App Store's or Android Market's
                                    search to find the application.
Song: The Great Unknown 
Artist: The Ghost Inside
Album: Get What You Give
Year: 2012
Tuning: Drop B



0:00
C ||----------------------------------|--------------------------------|
G ||----------------------------------|--------------------------------|                Cont.
D#||----------------------------------|--------------------------------|
A#||----------------------------------|--------------------------------|
F ||----------------------------------|--------------------------------|
A#||--12--12--12--12--12--12--12--12--|--12--12--12--12--12--0--0--12--|


0:02
----------------------------|---------------------------|
----------------------------|---------------------------|               Cont.
----------------------------|---------------------------|
----------------------------|---------------------------|
----------------------------|---------------------------|
-----12--0--0--0--0--0--10--|-----10--0--0--0--0--0--8--|

--------------------------|-----------------------------|
--------------------------|-----------------------------|               Cont.
--------------------------|-----------------------------|
--------------------------|-----------------------------|
--------------------------|-----------------------------|
-----0--7--0--5--5--0--7--|-----0--8--0--10--10--0--12--|

----------------------------|---------------------------|
----------------------------|---------------------------|               Cont.
----------------------------|---------------------------|
----------------------------|---------------------------|
----------------------------|---------------------------|
-----12--0--0--0--0--0--10--|-----10--0--0--0--0--0--8--|
                             PM        PM                
--------------------------|-----------------------------|
--------------------------|-----------------------------|               X2
--------------------------|-----------------------------|
--------------------------|-----------------------------|
--------------------------|-----8---------7-------------|
-----0--7--0--5--5--0--7--|--0-----10--0-----10--7--12--|
                                        Last time end on a 0




0:20
        PM PM PM PM PM       PM                  
--------------------------|-----------------------------|
--------------------------|-----------------------------|               Cont.
--------------------------|-----------------------------|
--------------------------|-----------------------------|
-----0--0--0--0--0--0--1--|--0--0-----------------------|
-----0--0--0--0--0--0--1--|--0--0-----------------------|
        PM PM PM PM PM                                
--------------------------|-----------------------------|
--------------------------|-----------------------------|               X2
--------------------------|-----------------------------|
--------------------------|-----------------------------|
-----0--0--0--0--0--0--0--|-----3---------5---------0---|
-----0--0--0--0--0--0--0--|---------5--3------3--5--0---|





0:30
     PM PM PM PM PM PM       PM    PM    PM    PM     
--------------------------|--------------------------|
--------------------------|--------------------------|          Cont.
--------------------------|--------------------------|
--------------------------|--------------------------|
-----0--0--0--0--0--0--1--|--0--0--0--3--0--0--0--1--|
-----0--0--0--0--0--0--1--|--0--0--0--3--0--0--0--1--|

--------------------------|--------------------------|
--------------------------|--------------------------|          Cont.
--------------------------|--------------------------|
--------------------------|--------------------------|
-----0----------------0---|-----3--------5--------0--|
-----0----------------0---|--------5--3-----3--5--0--|
     PM PM PM PM PM PM       PM    PM    PM    PM           
--------------------------|--------------------------|
--------------------------|--------------------------|
--------------------------|--------------------------|
--------------------------|--------------------------|
-----0--0--0--0--0--0--1--|--0--0--0--3--0--0--0--1--|
-----0--0--0--0--0--0--1--|--0--0--0--3--0--0--0--1--|



0:38
                                PM PM PM PM PM PM PM  
--------------------------|--------------------------|
--------------------------|--------------------------|          Cont.
--------------------------|--------------------------|
--5-----------------------|--------------------------|
-----3--------5--------0--|-----0--0--0--0--0--0--0--|
--------5--0-----3--5--0--|-----0--0--0--0--0--0--0--|
  PM    PM    PM  PM    PM        PM                 
----------------------------|------------------------|
----------------------------|------------------------|          Cont.
----------------------------|------------------------|
----------------------------|------------------------|
--0-----0-----0---0-----0---|-----0------------------|
--0-----0-----0---0-----0---|-----0------------------|
                                   PM PM PM PM PM PM PM  
-----------------------------|--------------------------|
-----------------------------|--------------------------|               Cont.
-----------------------------|--------------------------|
-----------------------------|--------------------------|
--------------------------0--|-----0--0--0--0--0--0--0--|
--8--8--8--8--12--12--12--0--|-----0--0--0--0--0--0--0--|
  PM    PM    PM  PM    PM        PM                 
----------------------------|------------------------|
----------------------------|------------------------|          Cont.
----------------------------|------------------------|
----------------------------|------------------------|
--0-----0-----0---0-----0---|-----0------------------|
--0-----0-----0---0-----0---|-----0------------------|

----------------------------|------------------------|
----------------------------|------------------------|          Cont.
----------------------------|------------------------|
----------------------------|------------------------|
---1--1--1--1--3--3--3--3---|--0\--------------------|
---1--1--1--1--3--3--3--3---|--0\--------------------|
  PM   PM   PM   PM     PM     PM         PM                 
------------------------------------|-----------------------|
------------------------------------|-----------------------|   Cont.
------------------------------------|-----------------------|
------------------------------------|-----------------------|
--0----0----0----0------0------0----|-----0-----------------|
--0----0----0----0------0------0----|-----0-----------------|
                                   PM PM PM PM PM PM PM  
-----------------------------|--------------------------|
-----------------------------|--------------------------|               Cont.
-----------------------------|--------------------------|
-----------------------------|--------------------------|
--------------------------0--|-----0--0--0--0--0--0--0--|
--8--8--8--8--12--12--12--0--|-----0--0--0--0--0--0--0--|
  PM    PM    PM  PM    PM        PM                 
----------------------------|------------------------|
----------------------------|------------------------|          Cont.
----------------------------|------------------------|
----------------------------|------------------------|
--0-----0-----0---0-----0---|-----0------------------|
--0-----0-----0---0-----0---|-----0------------------|

----------------------------|
----------------------------|
----------------------------|
----------------------------|
--1--1--1--1--3--3--3-------|
--1--1--1--1--3--3--3--12---|




0:58
----------------------------------|--------------------------------|
----------------------------------|--------------------------------|    Cont.
----------------------------------|--------------------------------|
----------------------------------|--------------------------------|
----------------------------------|--------------------------------|
--12--12--12--12--12--12--12--12--|--12--12--12--12--12--0--0--12--|

----------------------------|---------------------------|
----------------------------|---------------------------|               Cont.
----------------------------|---------------------------|
----------------------------|---------------------------|
----------------------------|---------------------------|
-----12--0--0--0--0--0--10--|-----10--0--0--0--0--0--8--|

--------------------------|-----------------------------|
--------------------------|-----------------------------|               Cont.
--------------------------|-----------------------------|
--------------------------|-----------------------------|
--------------------------|-----------------------------|
-----0--7--0--5--5--0--7--|-----0--8--0--10--10--0--12--|

----------------------------|---------------------------|
----------------------------|---------------------------|               Cont.
----------------------------|---------------------------|
----------------------------|---------------------------|
----------------------------|---------------------------|
-----12--0--0--0--0--0--10--|-----10--0--0--0--0--0--8--|
                             PM        PM                
--------------------------|-----------------------------|
--------------------------|-----------------------------|       
--------------------------|-----------------------------|
--------------------------|-----------------------------|
--------------------------|-----8---------7---------0---|
-----0--7--0--5--5--0--7--|--0-----10--0-----10--7--0---|
                                


1:10
     PM PM PM PM PM PM       PM    PM PM PM PM PM PM      
--------------------------|--------------------------|
--------------------------|--------------------------|          Cont.
--------------------------|--------------------------|
--------------------------|--------------------------|
-----0--0--0--0--0--0--1--|--0--0--0--0--0--0--0--0--|
-----0--0--0--0--0--0--1--|--0--0--0--0--0--0--0--0--|
  PM PM PM PM PM PM PM PM    PM                            
--------------------------|--------------------------|
--------------------------|--------------------------|          X2
--------------------------|--------------------------|
--------------------------|--------------------------|
--0--0--0--0--0--0--0--0--|--0--3--------5--------0--|
--0--0--0--0--0--0--0--0--|--0-----5--3-----3--5--0--|




1:19
     PM PM PM PM PM PM       PM    PM    PM    PM                  
--------------------------|--------------------------|
--------------------------|--------------------------|          Cont.
--------------------------|--------------------------|
--------------------------|--------------------------|
-----0--0--0--0--0--0--1--|--0--0--0--3--0--0--0--1--|
-----0--0--0--0--0--0--1--|--0--0--0--3--0--0--0--1--|
        PM PM PM PM PM       PM                           
--------------------------|--------------------------|
--------------------------|--------------------------|          X2
--------------------------|--------------------------|
--------------------------|--------------------------|
-----0--0--0--0--0--0--0--|--0--3--------5--------0--|
-----0--0--0--0--0--0--0--|--0-----5--3-----3--5--0--|
                                Last time end on starting note of next bar



1:28
--------------------------|--------------------------|
--------------------------|--------------------------|          Cont.
--------------------------|--------------------------|
-----7--7--7--7--7--7--7--|--7--7--7--7--7--7--7-----|
-----3--3--3--3--3--3--3--|--3--3--3--3--3--3--3--5--|
-----3--3--3--3--3--3--3--|--3--3--3--3--3--3--3--5--|

--------------------------|--------------------------|
--------------------------|--------------------------|
--------------------------|--------------------------|
--------------------------|--------------------------|
-----5--5--5--5--5--5--5--|--5--5--5--5--5--5--5--0--|
-----5--5--5--5--5--5--5--|--5--5--5--5--5--5--5--0--|



1:34
    PM PM PM PM PM PM PM  
--------------------------|
--------------------------|                                             Cont.
--------------------------|
--------------------------|
-----0--0--0--0--0--0--0--|
-----0--0--0--0--0--0--0--|
  PM    PM    PM  PM    PM        PM                 
----------------------------|------------------------|
----------------------------|------------------------|  
----------------------------|------------------------|
----------------------------|------------------------|
--0-----0-----0---0-----0---|-----0------------------|
--0-----0-----0---0-----0---|-----0------------------|



                                  PM PM PM PM PM PM PM  
----------------------------|--------------------------|
----------------------------|--------------------------|                Cont.
----------------------------|--------------------------|
----------------------------|--------------------------|
-------------------------0--|-----0--0--0--0--0--0--0--|
-------------------------0--|-----0--0--0--0--0--0--0--|
  PM    PM    PM  PM    PM        PM                 
----------------------------|------------------------|
----------------------------|------------------------|          Cont.
----------------------------|------------------------|
----------------------------|------------------------|
--0-----0-----0---0-----0---|-----0------------------|
--0-----0-----0---0-----0---|-----0------------------|
                                   PM PM PM PM PM PM PM  
-----------------------------|--------------------------|
-----------------------------|--------------------------|               Cont.
-----------------------------|--------------------------|
-----------------------------|--------------------------|
--------------------------0--|-----0--0--0--0--0--0--0--|
--8--8--8--8--12--12--12--0--|-----0--0--0--0--0--0--0--|
  PM    PM    PM  PM    PM        PM                 
----------------------------|------------------------|
----------------------------|------------------------|          Cont.
----------------------------|------------------------|
----------------------------|------------------------|
--0-----0-----0---0-----0---|-----0------------------|
--0-----0-----0---0-----0---|-----0------------------|

----------------------------|------------------------|
----------------------------|------------------------|          Cont.
----------------------------|------------------------|
----------------------------|------------------------|
---1--1--1--1--3--3--3--3---|--0\--------------------|
---1--1--1--1--3--3--3--3---|--0\--------------------|
  PM   PM   PM   PM     PM     PM         PM                 
------------------------------------|-----------------------|
------------------------------------|-----------------------|   Cont.
------------------------------------|-----------------------|
------------------------------------|-----------------------|
--0----0----0----0------0------0----|-----0-----------------|
--0----0----0----0------0------0----|-----0-----------------|
                                   PM PM PM PM PM PM PM  
-----------------------------|--------------------------|
-----------------------------|--------------------------|               Cont.
-----------------------------|--------------------------|
-----------------------------|--------------------------|
--------------------------0--|-----0--0--0--0--0--0--0--|
--8--8--8--8--12--12--12--0--|-----0--0--0--0--0--0--0--|
  PM    PM    PM  PM    PM        PM                 
----------------------------|------------------------|
----------------------------|------------------------|          Cont.
----------------------------|------------------------|
----------------------------|------------------------|
--0-----0-----0---0-----0---|-----0------------------|
--0-----0-----0---0-----0---|-----0------------------|

----------------------------|
----------------------------|
----------------------------|
----------------------------|
--1--1--1--1--3--3--3--0----|
--1--1--1--1--3--3--3--0----|




2:12
----------------------------|-------------------------|
----------------------------|-------------------------|
----------------------------|-------------------------|
----------------------------|-------------------------|
---------------------8--\\--|--0----------------------|
---------------------8--\\--|--0----------------------|

2:20
----------------------------|-------------------------|
----------------------------|-------------------------|
----------------------------|-------------------------|
----------------------------|-------------------------|
--0-------------------------|-------------------------|
--0-------------------------|-------------------------|

2:28
                PM PM PM PM                      
----------------------------|-------------------------|
----------------------------|-------------------------|
----------------------------|-------------------------|
----------------------------|-------------------------|
----------------0--0--0--0--|--0----------------------|
----------------0--0--0--0--|--0----------------------|

2:32
        PM PM     PM     PM    PM                     
----------------------------|-------------------------|
----------------------------|-------------------------|
----------------------------|-------------------------|
----------------------------|-------------------------|
--0-----0--0------0------0--|--0----------------------|
--0-----0--0------0------0--|--0----------------------|


2:36
       PM PM    PM    PM    PM    PM    PM PM   PM PM       
-------------------------|---------------------------------|
-------------------------|---------------------------------|            Cont.
-------------------------|---------------------------------|
-------------------------|---------------------------------|
--0----0--0-----0-----0--|--0-----0-----0--0----0--0----0--|
--0----0--0-----0-----0--|--0-----0-----1--1----1--1----0--|
           PM PM PM          PM PM PM PM       PM PM  
--------------------------|--------------------------|
--------------------------|--------------------------|                  X2
--------------------------|--------------------------|
--------------------------|--------------------------|
-----0-----0--0--0--1--0--|--0--0--0--0--3--0--0--0--|
-----0-----0--0--0--1--0--|--1--1--1--1--3--0--0--0--|


2:51
       PM PM    PM    PM    PM    PM    PM PM   PM PM       
-------------------------|---------------------------------|
-------------------------|---------------------------------|            Cont.
-------------------------|---------------------------------|
-------------------------|---------------------------------|
--0----0--0-----0-----0--|--0-----0-----0--0----0--0----0--|
--0----0--0-----0-----0--|--0-----0-----1--1----1--1----0--|
     PM PM    PM PM PM          PM PM PM PM       PM PM  
-----------------------------|--------------------------|
-----------------------------|--------------------------|                       X2
-----------------------------|--------------------------|
-----------------------------|--------------------------|
-----0--0-----0--0--0--1--0--|--0--0--0--0--3--0--0--0--|
-----0--0-----0--0--0--1--0--|--1--1--1--1--3--0--0--0--|



---------------------||
---------------------||
---------------------||
---------------------||
--0------------------||
--0------------------||


Tablature Legend
----------------
PM - palm mute
b - bend
L - tied note
x - dead note
g - grace note
(n) - ghost note
> - accentuded note
PH - pitch harmonic
h - hammer on
p - pull off
comments
We did not receive enough feedback on this tab! Please rate:
print report bad tab
1 2 3 4 5
2 comments total.
0 reply
raezor wrote on May 7 2014, 08:17 pm

This is in A# not B

0 reply
scottismad wrote on June 28 2014, 06:49 pm

Nope, it's in B.
Listen to the 0's in the breakdown, playing that in A# sounds terrible because it's a semitone off.

I want to post or [tab]
guest
You may want to rate the tab now too:
select rating
Please do not post tabs as comments. Select "correction" instead!