Oops, an error
Loading. Please wait.

Thirty Three Tab

ver1
ver1

Whole song

Interactive

More versions @911Tabs.com
3,068 views 48 this week
no commentswrite comment
1 2 3 4 5
excellent!
x 2
add to favorites launch autoscroll
font size
0
reset
Autoscroll
+/-
esc
set tempo
stop
Contributor
Tuning
B F# B E G# C#
WARNING: You are trying to view
                                    content from Ultimate-Guitar.com
                                    in an unauthorized application,
                                    which is prohibited.

                                    Please use an official Ultimate
                                    Guitar Tabs application for iPhone,
                                    iPad or Android to access legitimate
                                    chords, guitar, bass, and drum tabs
                                    from Ultimate-Guitar.com database.

                                    Type "ultimate guitar tabs" in Apple
                                    App Store's or Android Market's
                                    search to find the application.
Song: Thirty Three 
Artist: The Ghost Inside
Album: Get What You Give
Year: 2012
Tuning: Drop B




Both Guitars
Intro
C#||-----------------------------|----------------------------|
G#||-----------------------------|----------------------------|         Cont.
E ||-----------------------------|----------------------------|
B ||-10---10--10----10--10--10---|--10--10--10----9--9--9--7--|
F#||-7-----7---7-----7---7---7---|---7---7---7----5--5--5--3--|
B ||-7-----7---7-----7---7---7---|---7---7---7----5--5--5--3--|

------------------------|--------------------------|
------------------------|--------------------------|                            Cont.
------------------------|--------------------------|
-----7--7----7--7--7----|--7--7--7----9--9--9--10--|
-----3--3----3--3--3----|--3--3--3----5--5--5---7--|
-----3--3----3--3--3----|--3--3--3----5--5--5---7--|

-----------------------------|-------------------------------|
-----------------------------|-------------------------------|          Cont.
-----------------------------|-------------------------------|
-----10--10----10--10--10----|--10--10--10----14--14--14--9--|
------7---7-----7---7---7----|---7---7---7----10--10--10--5--|
------7---7-----7---7---7----|---7---7---7----10--10--10--5--|

------------------------|--------------------------|    
------------------------|--------------------------|                            Cont.
------------------------|--------------------------|
-----9--9----9--9--9----|--9--9--9----9--9--9--10--|
-----5--5----5--5--5----|--5--5--5----5--5--5---7--|
-----5--5----5--5--5----|--5--5--5----5--5--5---7--|

-----------------------------|----------------------------|
-----------------------------|----------------------------|                     Cont.
-----------------------------|----------------------------|
-----10--10----10--10--10----|--10--10--10----9--9--9--7--|
------7---7-----7---7---7----|---7---7---7----5--5--5--3--|
------7---7-----7---7---7----|---7---7---7----5--5--5--3--|

------------------------|--------------------------|
------------------------|--------------------------|                            Cont.
------------------------|--------------------------|
-----7--7----7--7--7----|--7--7--7----9--9--9--10--|
-----3--3----3--3--3----|--3--3--3----5--5--5---7--|
-----3--3----3--3--3----|--3--3--3----5--5--5---7--|

-----------------------------|-------------------------------|
-----------------------------|-------------------------------|          Cont.
-----------------------------|-------------------------------|
-----10--10----10--10--10----|--10--10--10----14--14--14--9--|
------7---7-----7---7---7----|---7---7---7----10--10--10--5--|
------7---7-----7---7---7----|---7---7---7----10--10--10--5--|

------------------------|-------------------------|
------------------------|-------------------------|
------------------------|-------------------------|
-----9--9----9--9--9----|--9--9--9----9--9--9--9--|
-----5--5----5--5--5----|--5--5--5----5--5--5--5--|
-----5--5----5--5--5----|--5--5--5----5--5--5--5--|





Both Guitars
Verse – 0:22
        PM PM PM PM PM             PM PM PM PM PM             
--------------------------|--------------------------|
--------------------------|--------------------------|                  Cont.
--------------------------|--------------------------|
--------------------------|--------------------------|
--1--0--0--0--0--0--0--0--|--1--0--0--0--0--0--0--0--|
--1--0--0--0--0--0--0--0--|--1--0--0--0--0--0--0--0--|

        PM    PM    PM PM          PM    PM    PM PM        
--------------------------|--------------------------|
--------------------------|--------------------------|                  X3
--8--7-----5-----7--------|--------------------------|
--x--x-----x-----x--------|--------------------------|
--6--5--0--3--0--5--0--0--|--1--3--0--4--0--3--0--0--|
--------0-----0-----0--0--|--1--3--0--4--0--3--0--0--|






Both Guitars
Pre Chorus – 0:38
        PM    PM    PM PM  
--------------------------|
--------------------------|             X3
--------------------------|
--------------------------|
--1--0--------------------|
--1--0--0--0--0--0--0--0--|






1st Guitar
Chorus – 0:42
---------------------------|-----------------------------|
---------------------------|-----------------------------|                      Cont.
---------------------------|-----------------------------|
--7--7--7--7--9--9--9--10--|-----10--10----10--10--10----|
--3--3--3--3--5--5--5---7--|------7---7-----7---7---7----|
--3--3--3--3--5--5--5---7--|------7---7-----7---7---7----|
     
----------------------------|------------------------|
----------------------------|------------------------|                  Cont.
----------------------------|------------------------|
--10--10--10----9--9--9--7--|-----7--7----7--7--7----|
---7---7---7----5--5--5--3--|-----3--3----3--3--3----|
---7---7---7----5--5--5--3--|-----3--3----3--3--3----|

--------------------------|-----------------------------|
--------------------------|-----------------------------|                       Cont.
--------------------------|-----------------------------|
--7--7--7----9--9--9--10--|-----10--10----10--10--10----|
--3--3--3----5--5--5---7--|------7---7-----7---7---7----|
--3--3--3----5--5--5---7--|------7---7-----7---7---7----|

-------------------------------|------------------------|
-------------------------------|------------------------|                       Cont.
-------------------------------|------------------------|
--10--10--10----14--14--14--9--|-----9--9----9--9--9----|
---7---7---7----10--10--10--5--|-----5--5----5--5--5----|
---7---7---7----10--10--10--5--|-----5--5----5--5--5----|

-------------------------|
-------------------------|
-------------------------|
--9--9--9-------------7--|
--5--5--5----8--\\----3--|
--5--5--5----8--\\----3--|
          




2nd Guitar
Chorus – 0:43
---------------------|------------5---------|
---------------------|-------8---------8----|                   Cont.
------------------5--|----------------------|
---------------------|----------------------|
---------------------|----------------------|
---------------------|----------------------|

--7-------------5----|------------5---------|
---------8-----------|-------8---------8----|                   Cont.
---------------------|----------------------|
---------------------|----------------------|
---------------------|----------------------|
---------------------|----------------------|

--7-------------8----|------------5---------|
---------8-----------|-------8---------8----|                   Cont.
---------------------|----------------------|
---------------------|----------------------|
---------------------|----------------------|
---------------------|----------------------|

--7------------------|----------------------|
---------8-----------|----------------------|                   Cont.
----------------7----|-------9----7----5----|
---------------------|----------------------|
---------------------|----------------------|
---------------------|----------------------|

-----------------------|
--8--------------------|
-----------------------|
--------------------7--|
-----------8--\\----3--|
-----------8--\\----3--|




Both Guitars
Chorus – 0:54                 
--------------------------|--------------------------|
--------------------------|--------------------------|                  Cont.
--------------------------|--------------------------|
-----7--7-----7-----7-----|--7-----7-----7--7--7--9--|
-----3--3-----3-----3-----|--3-----3-----3--3--3--5--|
-----3--3-----3-----3-----|--3-----3-----3--3--3--5--|
                
--------------------------|-----------------------------|
--------------------------|-----------------------------|                       Cont.
--------------------------|-----------------------------|
-----9--9-----9-----9-----|--9-----9-----10--10--10--7--|
-----5--5-----5-----5-----|--5-----5------7---7---7--3--|
-----5--5-----5-----5-----|--5-----5------7---7---7--3--|

--------------------------|--------------------------|
--------------------------|--------------------------|                  Cont.
--------------------------|--------------------------|
-----7--7-----7-----7-----|--7-----7-----7--7--7--9--|
-----3--3-----3-----3-----|--3-----3-----3--3--3--5--|
-----3--3-----3-----3-----|--3-----3-----3--3--3--5--|

--------------------------|------------------------------|
--------------------------|------------------------------|
--------------------------|------------------------------|
-----9--9-----9-----9-----|--9-----9-----10--10--10--10--|
-----5--5-----5-----5-----|--5-----5------7---7---7---7--|
-----5--5-----5-----5-----|--5-----5------7---7---7---7--|







Both Guitars
Post Chorus – 1:05
                       Feedback
--------------------------|--------------------------|
--------------------------|--------------------------|
--------------------------|--------------------------|
--------------------------|--------------------------|
--------------------------|--------------------------|
--------------------------|--------------------------|

1:10
--------------------------|--------------------------|
--------------------------|--------------------------|
--------------------------|--------------------------|
--------------------------|--------------------------|
--------------------------|--------------------------|
------------1--S----------|--12----------------------|




1:15      Pick Scrape 
--------------------------|
--------------------------|
--------------------------|
--------------------------|
-\\-----------------------|
-\\-----------------------|






Both Guitars
1:16
     PM    PM    PM    PM       PM    PM    PM    PM  
--------------------------|--------------------------|
--------------------------|--------------------------|
--------------------------|--------------------------|
--------------------------|--------------------------|
--1--0-----0-----0-----0--|--1--0-----0-----0-----0--|
--1--0-----0-----0-----0--|--1--0-----0-----0-----0--|
     PM    PM    PM    PM                             
--------------------------|--------------------------|
--------------------------|--------------------------|
--------------------------|--------------------------|
--------------------------|--------------------------|
--1--0-----0-----0-----0--|--1--1--1--1--3--3--3--3--|
--1--0-----0-----0-----0--|--1--1--1--1--3--3--3--3--|





Both Guitars
Pre Chorus – 1:21
        PM    PM    PM PM  
--------------------------|
--------------------------|             X3
--------------------------|
--------------------------|
--1--0--------------------|
--1--0--0--0--0--0--0--0--|





1st Guitar
Chorus – 1:26
---------------------------|-----------------------------|
---------------------------|-----------------------------|                      Cont.
---------------------------|-----------------------------|
-----------------------10--|-----10--10----10--10--10----|
------------------------7--|------7---7-----7---7---7----|
------------------------7--|------7---7-----7---7---7----|
     
----------------------------|------------------------|
----------------------------|------------------------|                  Cont.
----------------------------|------------------------|
--10--10--10----9--9--9--7--|-----7--7----7--7--7----|
---7---7---7----5--5--5--3--|-----3--3----3--3--3----|
---7---7---7----5--5--5--3--|-----3--3----3--3--3----|

--------------------------|-----------------------------|
--------------------------|-----------------------------|                       Cont.
--------------------------|-----------------------------|
--7--7--7----9--9--9--10--|-----10--10----10--10--10----|
--3--3--3----5--5--5---7--|------7---7-----7---7---7----|
--3--3--3----5--5--5---7--|------7---7-----7---7---7----|

-------------------------------|------------------------|
-------------------------------|------------------------|                       Cont.
-------------------------------|------------------------|
--10--10--10----14--14--14--9--|-----9--9----9--9--9----|
---7---7---7----10--10--10--5--|-----5--5----5--5--5----|
---7---7---7----10--10--10--5--|-----5--5----5--5--5----|

-------------------------|
-------------------------|
-------------------------|
--9--9--9-------------7--|
--5--5--5----8--\\----3--|
--5--5--5----8--\\----3--|
       

   


2nd Guitar
Chorus – 1:26
---------------------|------------5---------|
---------------------|-------8---------8----|                   Cont.
------------------5--|----------------------|
---------------------|----------------------|
---------------------|----------------------|
---------------------|----------------------|

--7-------------5----|------------5---------|
---------8-----------|-------8---------8----|                   Cont.
---------------------|----------------------|
---------------------|----------------------|
---------------------|----------------------|
---------------------|----------------------|

--7-------------8----|------------5---------|
---------8-----------|-------8---------8----|                   Cont.
---------------------|----------------------|
---------------------|----------------------|
---------------------|----------------------|
---------------------|----------------------|

--7------------------|----------------------|
---------8-----------|----------------------|                   Cont.
----------------7----|-------9----7----5----|
---------------------|----------------------|
---------------------|----------------------|
---------------------|----------------------|

-----------------------|
--8--------------------|
-----------------------|
--------------------7--|
-----------8--\\----3--|
-----------8--\\----3--|





Both Guitars
Chorus – 1:37                
--------------------------|--------------------------|
--------------------------|--------------------------|                  Cont.
--------------------------|--------------------------|
-----7--7-----7-----7-----|--7-----7-----7--7--7--9--|
-----3--3-----3-----3-----|--3-----3-----3--3--3--5--|
-----3--3-----3-----3-----|--3-----3-----3--3--3--5--|
                
--------------------------|-----------------------------|
--------------------------|-----------------------------|                       Cont.
--------------------------|-----------------------------|
-----9--9-----9-----9-----|--9-----9-----10--10--10--7--|
-----5--5-----5-----5-----|--5-----5------7---7---7--3--|
-----5--5-----5-----5-----|--5-----5------7---7---7--3--|

--------------------------|--------------------------|
--------------------------|--------------------------|                  Cont.
--------------------------|--------------------------|
-----7--7-----7-----7-----|--7-----7-----7--7--7--9--|
-----3--3-----3-----3-----|--3-----3-----3--3--3--5--|
-----3--3-----3-----3-----|--3-----3-----3--3--3--5--|

--------------------------|------------------------------|
--------------------------|------------------------------|
--------------------------|------------------------------|
-----9--9-----9-----9-----|--9-----9-----10--10--10--10--|
-----5--5-----5-----5-----|--5-----5------7---7---7---7--|
-----5--5-----5-----5-----|--5-----5------7---7---7---7--|






1st Guitar
Bridge – 1:48 
2nd Guitar does all the 0’s
  PM PM PM PM                                         
--------------------------|--------------------------|
--------------------------|--------------------------|                  Cont.
--------------------------|--------------------------|
--------------7--7--7--7--|--7--7--7--7--7--7--7--7--|
--0--0--0--0--8--8--8--8--|--8--8--8--8--8--8--8--8--|
--0--0--0--0--------------|--------------------------|
                             PM PM PM PM              
--------------------------|--------------------------|
--------------------------|--------------------------|                  Cont.
--------------------------|--------------------------|
--7--7--7--7--7--7--7--7--|--------------7--7--7--7--|
--8--8--8--8--8--8--8--8--|--0--0--0--0--8--8--8--8--|
--------------------------|--0--0--0--0--------------|
  PM PM PM PM                                         
--------------------------|--------------------------|
--------------------------|--------------------------|                  Cont.
--------------------------|--------------------------|
--------------7--7--7--7--|--7--7--7--7--7--7--7--7--|
--0--0--0--0--8--8--8--8--|--8--8--8--8--8--8--8--8--|
--0--0--0--0--------------|--------------------------|
                             PM PM PM PM                       
--------------------------|-----------------------|
--------------------------|-----------------------|
--------------------------|-----------------------|
--7--7--7--7--7--7--7--7--|-----------------------|
--8--8--8--8--8--8--8--8--|--0--0--0--0-----------|
--------------------------|--0--0--0--0-----------|





Both Guitars
Bridge – 2:00
  PM PM PM PM                                         
--------------------------|--------------------------|
--------------------------|--------------------------|                  Cont.
--------------------------|--------------------------|
--------------7--7--7--7--|--7--7--7--7--7--7--7--7--|
--0--0--0--0--8--8--8--8--|--8--8--8--8--8--8--8--8--|
--0--0--0--0--------------|--------------------------|
                             PM PM PM PM PM PM PM PM  
--------------------------|--------------------------|
--------------------------|--------------------------|                  Cont.
--------------------------|--------------------------|
--7--7--7--7--7--7--7--7--|--------------------------|
--8--8--8--8--8--8--8--8--|--0--0--0--0--0--0--0--0--|
--------------------------|--0--0--0--0--0--0--0--0--|
  PM PM PM PM                                            
--------------------------|--------------------------|
--------------------------|--------------------------|                  Cont.
--------------------------|--------------------------|
--------------7--7--7--7--|--7--7--7--7--7--7--7--7--|
--0--0--0--0--8--8--8--8--|--8--8--8--8--8--8--8--8--|
--0--0--0--0--------------|--------------------------|
                             PM PM PM PM            
--------------------------|------------------------|
--------------------------|------------------------|
--------------------------|------------------------|
--7--7--7--7--7--7--7--7--|------------------------|
--8--8--8--8--8--8--8--8--|--0--0--0--0--0---------|
--------------------------|--0--0--0--0--0---------|
 



--------------------------|--------------------------|
--------------------------|--------------------------|                  Cont.
--------------------------|--------------------------|
--------------7--7--7--7--|--7--7--7--7--7--7--7--7--|
--------------8--8--8--8--|--8--8--8--8--8--8--8--8--|
--------------------------|--------------------------|
                                PMPMPM PM PMPMPM PMPMPM  
--------------------------|-----------------------------|
--------------------------|-----------------------------|                       Cont.
--------------------------|-----------------------------|
--7--7--7--7--7--2--2--2--|--2--------------------------|
--8--7--7--7--7--3--3--3--|--3--0-0-0--0--0-0-0--0-0-0--|
--------------------------|-----0-0-0--0--0-0-0--0-0-0--|
  PM PM PM PM                                         
--------------------------|--------------------------|
--------------------------|--------------------------|                  Cont.
--------------------------|--------------------------|
--------------7--7--7--7--|--7--7--7--7--7--7--7--7--|
--0--0--0--0--8--8--8--8--|--8--8--8--8--8--8--8--8--|
--0--0--0--0--------------|--------------------------|
                                PM PM PM PM PM PM PM PM      
--------------------------|-----------------------------|
--------------------------|-----------------------------|                       
--------------------------|-----------------------------|
--7--7--7--7--7--2--2--2--|--2----------------------10--|
--8--7--7--7--7--3--3--3--|--3--0-0-0--0--0-0-0--0---7--|
--------------------------|-----0-0-0--0--0-0-0--0---7--|





1st Guitar – Quiet 
Build Up – 2:22
-----------------------------|----------------------------|
-----------------------------|----------------------------|                     Cont.
-----------------------------|----------------------------|
-----10--10----10--10--10----|--10--10--10----9--9--9--7--|
------7---7-----7---7---7----|---7---7---7----5--5--5--3--|
------7---7-----7---7---7----|---7---7---7----5--5--5--3--|
     
------------------------|--------------------------|
------------------------|--------------------------|                    Cont.
------------------------|--------------------------|
-----7--7----7--7--7----|--7--7--7----9--9--9--10--|
-----3--3----3--3--3----|--3--3--3----5--5--5---7--|
-----3--3----3--3--3----|--3--3--3----5--5--5---7--|

-----------------------------|-------------------------------|
-----------------------------|-------------------------------|  Cont.
-----------------------------|-------------------------------|
-----10--10----10--10--10----|--10--10--10----14--14--14--9--|
------7---7-----7---7---7----|---7---7---7----10--10--10--5--|
------7---7-----7---7---7----|---7---7---7----10--10--10--5--|





2nd Guitar - Quiet
Build Up -  2:22
---------------------|------------5---------|
---------------------|-------8---------8----|                   Cont.
------------------5--|----------------------|
---------------------|----------------------|
---------------------|----------------------|
---------------------|----------------------|

--7-------------5----|------------5---------|
---------8-----------|-------8---------8----|                   Cont.
---------------------|----------------------|
---------------------|----------------------|
---------------------|----------------------|
---------------------|----------------------|

--7-------------8----|------------5---------|
---------8-----------|-------8---------8----|                   Cont.
---------------------|----------------------|
---------------------|----------------------|
---------------------|----------------------|
---------------------|----------------------|

--7------------------|----------------------|
---------8-----------|----------------------|                   Cont.
----------------7----|-------9----7----5----|
---------------------|----------------------|
---------------------|----------------------|
---------------------|----------------------|






Both Guitars
Chorus – 2:31
------------------------|
------------------------|                       
------------------------|
-----9--9----9--9--9--3-|
-----5--5----5--5--5--7-|
-----5--5----5--5--5--7-|
    
--------------------------|--------------------------|
--------------------------|--------------------------|                  Cont.
--------------------------|--------------------------|
-----7--7-----7-----7-----|--7-----7-----7--7--7--9--|
-----3--3-----3-----3-----|--3-----3-----3--3--3--5--|
-----3--3-----3-----3-----|--3-----3-----3--3--3--5--|
                
--------------------------|-----------------------------|
--------------------------|-----------------------------|                       Cont.
--------------------------|-----------------------------|
-----9--9-----9-----9-----|--9-----9-----10--10--10--7--|
-----5--5-----5-----5-----|--5-----5------7---7---7--3--|
-----5--5-----5-----5-----|--5-----5------7---7---7--3--|

--------------------------|--------------------------|
--------------------------|--------------------------|                  Cont.
--------------------------|--------------------------|
-----7--7-----7-----7-----|--7-----7-----7--7--7--9--|
-----3--3-----3-----3-----|--3-----3-----3--3--3--5--|
-----3--3-----3-----3-----|--3-----3-----3--3--3--5--|

--------------------------|------------------------------|
--------------------------|------------------------------|              X2
--------------------------|------------------------------|
-----9--9-----9-----9-----|--9-----9-----10--10--10--10--|
-----5--5-----5-----5-----|--5-----5------7---7---7---7--|
-----5--5-----5-----5-----|--5-----5------7---7---7---7--|




Last time end on:                 
--------------------------|
--------------------------|
--------------------------|
-----------------------3--|
-----------------------3--|
-----------------------3--|




Tablature Legend
----------------
PM - palm mute
b - bend
L - tied note
x - dead note
g - grace note
(n) - ghost note
> - accentuded note
PH - pitch harmonic
h - hammer on
p - pull off
S - slide
comments
We did not receive enough feedback on this tab! Please rate:
print report bad tab
1 2 3 4 5
I want to post or [tab]
guest
You may want to rate the tab now too:
select rating
Please do not post tabs as comments. Select "correction" instead!