Oops, an error
Loading. Please wait.

The Walking Dead Tab

1,089 views 1 this week
no commentswrite comment
1 2 3 4 5
please rate
Autoscroll
+/-
esc
set tempo
stop
Contributor
Difficulty
Tuning
novice
A# F A# D# G C
Hey! There's an official Ultimate Guitar app which is ideal
for learning songs when you're away from computer. Get the app
WARNING: You are trying to view
                                    content from Ultimate-Guitar.com
                                    in an unauthorized application,
                                    which is prohibited.

                                    Please use an official Ultimate
                                    Guitar Tabs application for iPhone,
                                    iPad or Android to access legitimate
                                    chords, guitar, bass, and drum tabs
                                    from Ultimate-Guitar.com database.

                                    Type "ultimate guitar tabs" in Apple
                                    App Store's or Android Market's
                                    search to find the application.
-------------------------------------------------------------------------------
                        The Walking Dead – The Great Commission
-------------------------------------------------------------------------------
Tabbed by: Jared

Tuning: Drop A#

C |---------------------------------------------------------------------------|
G |---------------------------------------------------------------------------|
D#|---------------------------------------------------------------------------|
A#|---------------------------------------------------------------------------|
F |-3-2-1---------------------------------------------------------------------|
A#|-3-2-1-0000000000000000000000000000----------------------------------------|
    . . .
X4

“WAKE UP!”
C |---------------------------------------------------------------------------|
G |---------------------------------------------------------------------------|
D#|---------------------------------------------------------------------------|
A#|---------------------------------------------------------------------------|
F |-3-2-1-3-2-1-3-2-1-3-2-1---------------------------------------------------|
A#|-3-2-1-3-2-1-3-2-1-3-2-1-0000000-------------------------------------------|
    . . . . . . . . . . . .
X4

Guitar 1
C |---------------------------------------------------------------------------|
G |---------------------------------------------------------------------------|
D#|---------------------------------------------------------------------------|
A#|---------------------------------------------------------------------------|
F |-000-----------------------------------------------------------------------|
A#|-000-----------------------------------------------------------------------|
    ...

Guitar 2
C |---------------------------------------------------------------------------|
G |---------------------------------------------------------------------------|
D#|---------------------------------------------------------------------------|
A#|---------------------------------------------------------------------------|
F |-----000-------------------------------------------------------------------|
A#|-----000-------------------------------------------------------------------|
        ...

C |---------------------------------------------------------------------------|
G |---------------------------------------------------------------------------|
D#|---------------------------------------------------------------------------|
A#|---------------------------------------------------------------------------|
F |-000-000-000-000-----------------------------------------------------------|
A#|-000-000-000-000-000-000-000-000-------------------------------------------|
    ... ... ... ...
X2

Guitar 1
C |---------------------------------------------------------------------------|
G |---------------------------------------------------------------------------|
D#|---------------------------------------------------------------------------|
A#|---------------------------------------------------------------------------|
F |---------------------------------------------------------------------------|
A#|-000-----------------------------------------------------------------------|

Guitar 2
C |---------------------------------------------------------------------------|
G |---------------------------------------------------------------------------|
D#|---------------------------------------------------------------------------|
A#|---------------------------------------------------------------------------|
F |---------------------------------------------------------------------------|
A#|-----000-------------------------------------------------------------------|

C |---------------------------------------------------------------------------|
G |---------------------------------------------------------------------------|
D#|---------------------------------------------------------------------------|
A#|---------------------------------------------------------------------------|
F |-000-000---000----00000-000-000---000----00000-----------------------------|
A#|-111-111---111----11111-111-111---111----11111-----------------------------|
                                       .
X2

Guitar 1
C |---------------------------------------------------------------------------|
G |---------------------------------------------------------------------------|
D#|---------------------------------------------------------------------------|
A#|---------------------------------------------------------------------------|
F |---------------------------------------------------------------------------|
A#|-000-----------------------------------------------------------------------|
Guitar 2
C |---------------------------------------------------------------------------|
G |---------------------------------------------------------------------------|
D#|---------------------------------------------------------------------------|
A#|---------------------------------------------------------------------------|
F |---------------------------------------------------------------------------|
A#|-----000-------------------------------------------------------------------|
Guitar 3
C |---------------------------------------------------------------------------|
G |---------------------------------------------------------------------------|
D#|---------------------------------------------------------------------------|
A#|---------------------------------------------------------------------------|
F |---------------------------------------------------------------------------|
A#|----------000--------------------------------------------------------------|

C |---------------------------------------------------------------------------|
G |---------------------------------------------------------------------------|
D#|---------------------------------------------------------------------------|
A#|---------------------------------------------------------------------------|
F |-------------------------6---3/5--------------------------9---3/5----------|
A#|-000-000-000-000-000-000---0------000-000-000-000-000-000---0--------------|
X2

C |---------------------------------------------------------------------------|
G |---------------------------------------------------------------------------|
D#|---------------------------------------------------------------------------|
A#|-0~------------------------------------------------------------------------|
F |-0~------------------------------------------------------------------------|
A#|-0~------------------------------------------------------------------------|

Guitar !
C |---------------------------------------------------------------------------|
G |---------------------------------------------------------------------------|
D#|---------------------------------------------------------------------------|
A#|---------------------------------------------------------------------------|
F |-3-2-1-3-2-1-0-0-0-0---------------0-0-0-0---------------------------------|
A#|-3-2-1-3-2-1-0-0-0-0---------------0-0-0-0---------------------------------|
    . . . . . . . . . .               . . . .
Guitar 2
C |---------------------------------------------------------------------------|
G |---------------------------------------------------------------------------|
D#|---------------------------------------------------------------------------|
A#|---------------------------------------------------------------------------|
F |-----------------------3-2-1-3-2-1-0-0-0-0---------------------------------|
A#|-----------------------3-2-1-3-2-1-0-0-0-0---------------------------------|
                          . . . . . . . . . .

“EVERYONE IS DEAD!”
C |---------------------------------------------------------------------------|
G |---------------------------------------------------------------------------|
D#|---------------------------------------------------------------------------|
A#|---------------------------------------------------------------------------|
F |-3-2-1-3-2-1-0-0-0-0-------------------------------------------------------|
A#|-3-2-1-3-2-1-0-0-0-0-------------------------------------------------------|
    . . . . . . . . . .
X4

C |---------------------------------------------------------------------------|
G |---------------------------------------------------------------------------|
D#|---------------------------------------------------------------------------|
A#|-0~----------------0~------------------------------------------------------|
F |-0~000000000000000-0~00000000-000-000--------------------------------------|
A#|-0~000000000000000-0~00000000-000-000--------------------------------------|
      ...............   ........ ... ...

C |---------------------------------------------------------------------------|
G |---------------------------------------------------------------------------|
D#|---------------------------------------------------------------------------|
A#|---------------------------------------------------------------------------|
F |---------------------------------------------------------------------------|
A#|-00-00-00-00-00-00-00-00-11111111------------------------------------------|
X4

C |---------------------------------------------------------------------------|
G |---------------------------------------------------------------------------|
D#|---------------------------------------------------------------------------|
A#|-0-------------------------------------------------------------------------|
F |-0-------------------------------------------------------------------------|
A#|-0-------------------------------------------------------------------------|
    .

“WAKE UP!”
C |---------------------------------------------------------------------------|
G |---------------------------------------------------------------------------|
D#|---------------------------------------------------------------------------|
A#|---------------------------------------------------------------------------|
F |-3-2-1-3-2-1-3-2-1-3-2-1---------------------------------------------------|
A#|-3-2-1-3-2-1-3-2-1-3-2-1-0000000-------------------------------------------|
    . . . . . . . . . . . .
X4

C |---------------------------------------------------------------------------|
G |---------------------------------------------------------------------------|
D#|---------------------------------------------------------------------------|
A#|-0~-0~-0~-0~---------------------------------------------------------------|
F |-0~-0~-0~-0~---------------------------------------------------------------|
A#|-0~-0~-0~-0~---------------------------------------------------------------|

Guitar 1
C |---------------------------------------------------------------------------|
G |---------------------------------------------------------------------------|
D#|------------8/7---5---5/7------------8/7---7---12/11-----------------------|
A#|-0~-----------------------0~-----------------------------------------------|
F |-0~-0000000-6/5-0-3-0-3/5-0~-0000000-6/5-0-5-0-10/9------------------------|
A#|-0~-0000000-----0---0-----0~-0000000-----0---0-----------------------------|
       .......     .   .        .......     .   .

Guitar 2
C |---------------------------------------------------------------------------|
G |---------------------------------------------------------------------------|
D#|---------------------------------------------------------------------------|
A#|--------------------------0------------------------------------------------|
F |--------------------------0------------------------------------------------|
A#|--------------------------0------------------------------------------------|
                             .

Guitar 1
C |---------------------------------------------------------------------------|
G |---------------------------------------------------------------------------|
D#|------------8/7---5---5/7--------------------------------------------------|
A#|-0~------------------------------------------------------------------------|
F |-0~-0000000-6/5-0-3-0-3/5--0000000-----------------------------------------|
A#|-0~-0000000-----0---0------0000000-----------------------------------------|
       .......     .   .      .......

Guitar 2
C |---------------------------------------------------------------------------|
G |---------------------------------------------------------------------------|
D#|---------------------------------------------------------------------------|
A#|-0~------------------------------------------------------------------------|
F |-0~-------0----------------0000000-----------------------------------------|
A#|-0~-------0----------------0000000-----------------------------------------|
             .                .......

Both Guitars
C |---------------------------------------------------------------------------|
G |---------------------------------------------------------------------------|
D#|------------8/7---5---5/7------------8/7---7---12/11-----------------------|
A#|-0~-----------------------0~-----------------------------------------------|
F |-0~-0000000-6/5-0-3-0-3/5-0~-0000000-6/5-0-5-0-10/9------------------------|
A#|-0~-0000000-----0---0-----0~-0000000-----0---0-----------------------------|
       .......     .   .        .......     .   .
X2

C |---------------------------------------------------------------------------|
G |---------------------------------------------------------------------------|
D#|---------------------------------------------------------------------------|
A#|-0~----------0~----------0~----------0~----x-------------------------------|
F |-0~----------0~----------0~----------0~----x-------------------------------|
A#|-0~----4-3-1-0~----4-3-1-0~----4-3-1-0~----x-------------------------------|

“WAKE UP THIS GENERATION!”
C |-----------------------------------------------------------------------------|
G |-----------------------------------------------------------------------------|
D#|-----------------------------------------------------------------------------|
A#|-----------------------------------------------------------------------------|
F |-00-00---0----00-00-0-00-00---0----00-00-------------------------------------|
A#|-11-11---1----11-11-1-11-11---1----11-11-------------------------------------|
                                          .
X2

Hope you enjoy this great song!
Please rate and comment!
God Bless!

************************************

| /   slide up
| \   slide down
| h   hammer-on
| p   pull-off
| ~   vibrato
| +   harmonic
| x   Mute note
| b   Bend
| pb  Pre-bend
| br  Bend release
| pbr Pre-bend release
| brb Bend release bend

************************************
comments
We did not receive enough feedback on this tab! Please rate:
print report bad tab
1 2 3 4 5
I want to post or [tab]
guest
You may want to rate the tab now too:
select rating
Please do not post tabs as comments. Select "correction" instead!