Oops, an error
Loading. Please wait.

Echelons To Molotovs Tab

835 views 1 this week
no commentswrite comment
1 2 3 4 5
please rate
Autoscroll
+/-
esc
set tempo
stop
Contributor
WARNING: You are trying to view
                                    content from Ultimate-Guitar.com
                                    in an unauthorized application,
                                    which is prohibited.

                                    Please use an official Ultimate
                                    Guitar Tabs application for iPhone,
                                    iPad or Android to access legitimate
                                    chords, guitar, bass, and drum tabs
                                    from Ultimate-Guitar.com database.

                                    Type "ultimate guitar tabs" in Apple
                                    App Store's or Android Market's
                                    search to find the application.
                  Echelons To Molotovs                               
                   The Human Abstract
Tab by : Rylaxit
Exported in GP5



     W                     S S E  E  E  E  E  S S E   
D||-------------------||-----------------------------|
A||-------------------||-----------------------------|
F||-------------------||*----------------------------|
C||-------------------||*---------7--7---------------|
G||-------------------||----------------5--5---------|
C||-------------------||---0-0-0--------------0-0-0--|


  E  E  E  E  E  E  E  E     S S E  E  E  E  E  S S E   
--------------------------|----------------------------|
--------------------------|----------------------------|
--------------------------|----------------------------|
--7--7--------------5--8--|---------8--8---------------|
--------5--5--4--7--------|---------------7--7---------|
--------------------------|--0-0-0--------------0-0-0--|


  E  E  E  E  E   E  E  E        S  S  S  S  S  S  S  S  S  S  S  S  Q      
----------------------------||---------------------------------------------|
----------------------------||---------------------------------------------|
---------------------------*||-----------14-15-17-15-14--------------------|
---------------------------*||--14-15-17----------------17-15-14----14s----|
--5--8--7--8--5--10--8--7---||-----------------------------------17--------|
----------------------------||---------------------------------------------|


  E  E  E  E  E  E  E   E     E  E  E  E  S  S  E  E  E   
---------------------------|-----------------------------|
---------------------------|-----------------------------|
---------------------------|-----------------------------|
--5-----7-----8------------|-----------------------------|
--------------------5S--4--|--L--5--7--8--7h-8p-7--4--5--|
-----0-----0-----0---------|-----------------------------|


  S S E  E  E  E  E  S S E     S S E  E  E  E  E    E.   S  
----------------------------|------------------------------|
----------------------------|------------------------------|
----------------------------|------------------------------|
----------------------------|---------------------<>7s---5-|
----------------------------|------------------5-----------|
--0-0-0--5--8--3--7--0-0-0--|--0-0-0--0--3--7--------------|


  E  E  E  E  E  E  E   E     E  E  E  E  S  S  E  E  E   
---------------------------|-----------------------------|
---------------------------|-----------------------------|
---------------------------|-----------------------------|
--5-----7-----8------------|-----------------------------|
--------------------5S--4--|--L--5--7--8--7h-8p-7--4--5--|
-----0-----0-----0---------|-----------------------------|


  E  E  S  S S  S E  E  S  S S  S    E  E  S  S S  S S  S S  S S  S S  S  
----------------------------------|--------------------------------------|
----------------------------------|--------------------------------------|
--------9p-6-9p-6-----------------|----------------------------9p-6-9p-6-|
------------------------8p-5-8p-5-|------------------8p-5-8p-5-----------|
----------------------------------|--------7p-4-7p-4---------------------|
--0--0------------0--0------------|--0--0--------------------------------|


  E  E  E  E  E  E  E   E     E  E  E  E  S  S  E  E  E   
---------------------------|-----------------------------|
---------------------------|-----------------------------|
---------------------------|-----------------------------|
--5-----7-----8------------|-----------------------------|
--------------------5S--4--|--L--5--7--8--7h-8p-7--4--5--|
-----0-----0-----0---------|-----------------------------|


  S S E  E  E  E  E  S S E     E  E  E  E  E  Q    E   
----------------------------|-------------------------|
----------------------------|-------------------------|
----------------------------|-----------------8----8--|
----------------------------|--------4--7-------------|
----------------------------|--3--6-------------------|
--0-0-0--5--8--3--7--0-0-0--|--------------0----------|


  E  E  E  E  E  E  E   E     E  E  E  E  S  S  E  E  E   
---------------------------|-----------------------------|
---------------------------|-----------------------------|
---------------------------|-----------------------------|
--5-----7-----8------------|-----------------------------|
--------------------5S--4--|--L--5--7--8--7h-8p-7--4--5--|
-----0-----0-----0---------|-----------------------------|


  E  E  S  S S  S E  E  S  S S  S    E  E  S  S S  S S  S S  S S  S S  S  
----------------------------------|--------------------------------------|
----------------------------------|--------------------------------------|
--------9p-6-9p-6-----------------|----------------------------9p-6-9p-6-|
------------------------8p-5-8p-5-|------------------8p-5-8p-5-----------|
----------------------------------|--------7p-4-7p-4---------------------|
--0--0------------0--0------------|--0--0--------------------------------|


    S S S S S S S S S S S S  S S S S    S S S S S S S S  S S S S  S S S S  
|------------------------------------|------------------------------------|
|------------------------------------|------------------------------------|
|*-----------------------------------|------------------------------------|
|*-----------------------------------|------------------------------------|
|-------------------5-------12-------|------------------12-------10-------|
|---0-0-0-0-0-0-0-0---0-0-0----0-0-0-|--0-0-0-0-0-0-0-0----0-0-0----0-0-0-|


  S S S S S S S S  S S S S   Q        S S E  E  E  E  E    Q       
-----------------------------------|-----------------------------||
-----------------------------------|-----------------------------||
-----------------------------------|----------------------------*||
-----------------------------------|------------8--7------------*||
------------------10-------<>7~----|---------5--------8--<>4-----||
--0-0-0-0-0-0-0-0----0-0-0---------|--0-0-0----------------------||


  E   E  E  E   E  E  S S E     E  S S E  E  E  E  E  E   
-----------------------------|---------------------------|
-----------------------------|---------------------------|
-----------------------------|---------------------------|
------------5h--7------------|---------------------8--7--|
--4h--7----------------------|------------5--8--7--------|
---------0---------0--0-0-0--|--0--0-0-0-----------------|


                                |----3---|  |---3--|    |---3---|  |---3---|   
  E   E  E  E   E  E  S S E     E    E   E  E   E  E    E   E   E  E   E   E   
-----------------------------|---------------------8h--12p--8-----------------|
-----------------------------|-----------------10--------------10-------------|
-----------------------------|--------------7----------------------9----------|
------------5h--7------------|----------10----------------------------10------|
--4h--7----------------------|--7h--12------------------------------------12--|
---------0---------0--0-0-0--|------------------------------------------------|


  E   E  E  E   E  E  S S E     E  S S E  E  E  E  E  E   
-----------------------------|---------------------------|
-----------------------------|---------------------------|
-----------------------------|---------------------------|
------------5h--7------------|---------------------8--7--|
--4h--7----------------------|------------5--8--7--------|
---------0---------0--0-0-0--|--0--0-0-0-----------------|


                                |----3---|  |---3--|    |---3---|  |---3---|   
  E   E  E  E   E  E  S S E     E    E   E  E   E  E    E   E   E  E   E   E   
-----------------------------|---------------------8h--12p--8-----------------|
-----------------------------|-----------------10--------------10-------------|
-----------------------------|--------------7----------------------9----------|
------------5h--7------------|----------10----------------------------10------|
--4h--7----------------------|--7h--12------------------------------------12--|
---------0---------0--0-0-0--|------------------------------------------------|


  E  E  S S S S E  E  S S E     E  E  S S E  S  S  E  E  E   
-----------------------------|------------------------------|
-----------------------------|------------------------------|
-----------------------------|------------------------------|
----------------8--7---------|------------------------------|
--------8-8-7-7-----------8--|--------8-7-5--0h-5-10--8-----|
--0--0----------------0-0----|--0--0---------------------7--|


  E  E  S S S S E  E  S S E  E  E     S  S  E  E  E  E   E  E    E    
-----------------------------------|---------------------------------|
-----------------------------------|---------------------------------|
-----------------------------------|---------------------------------|
----------------8--7---------------|---------------------------------|
--------8-8-7-7-----------8--------|--7p-5p-4--5--7-----10--8--------|
--0--0----------------0-0----0--0--|-----------------7---------<>7b--|


  E  E  S S S S E  E  S S E     E  E  S S E  S  S  E  E  E   
-----------------------------|------------------------------|
-----------------------------|------------------------------|
-----------------------------|------------------------------|
----------------8--7---------|------------------------------|
--------8-8-7-7-----------8--|--------8-7-5--0h-5-10--8-----|
--0--0----------------0-0----|--0--0---------------------7--|


  E  E  S  S  E  E  E  S S E     E  E  S  S  E  S  S  E  S S  E   
------------------------------|----------------------------------|
------------------------------|----------------------------------|
-----------------7--5---------|----------------------------------|
--------7p-5p-3--------0-0-3--|--------0h-2h-5--0h-3h-7--7-8-10--|
--3--3------------------------|----------------------------------|
------------------------------|--8--8----------------------------|


    S S E  E  E  E  E  S S E     E  E  E  E  E  E  E  E   
|-----------------------------|--------------------------|
|-----------------------------|--------------------------|
|*----------------------------|--------------------------|
|*---------7--7---------------|--7--7--------------5--8--|
|----------------5--5---------|--------5--5--4--7--------|
|---0-0-0--------------0-0-0--|--------------------------|


  S S E  E  E  E  E  S S E     E  E  E  E  E   E  E  E     
----------------------------|----------------------------||
----------------------------|----------------------------||
----------------------------|---------------------------*||
---------8--8---------------|---------------------------*||
---------------7--7---------|--5--8--7--8--5--10--8--7---||
--0-0-0--------------0-0-0--|----------------------------||


   S  S  S  S  S  S  S  S  S  S  S  S  Q        S S E  E  E  E  E  S S E   
---------------------------------------------|----------------------------|
---------------------------------------------|----------------------------|
-----------14-15-17-15-14--------------------|----------------------------|
--14-15-17----------------17-15-14----14s----|---------7--7---------------|
-----------------------------------17--------|---------------5--5---------|
---------------------------------------------|--0-0-0--------------0-0-0--|


  E  E  E  E  E  E  E  E     S S E  E  E  E  E  S S E   
--------------------------|----------------------------|
--------------------------|----------------------------|
--------------------------|----------------------------|
--7--7--------------5--8--|---------8--8---------------|
--------5--5--4--7--------|---------------7--7---------|
--------------------------|--0-0-0--------------0-0-0--|


  PM PM PM  PM PM PM PM PM                               
  E  E  E   E  E  E  E  E     S S E  E  E  E  E  S S E   
---------------------------|----------------------------|
---------------------------|----------------------------|
---------------------------|----------------------------|
------------------8--7--5--|---------7--7---------------|
--5--8--7--10--5-----------|---------------5--5---------|
---------------------------|--0-0-0--------------0-0-0--|


  E  E  E  E  E  E  E  E     S S E  E  E  E  E  S S E   
--------------------------|----------------------------|
--------------------------|----------------------------|
--------------------------|----------------------------|
--7--7--------------5--8--|---------8--8---------------|
--------5--5--4--7--------|---------------7--7---------|
--------------------------|--0-0-0--------------0-0-0--|


   S  S  S  S  S  S  S  S  S  S  S  S  Q        Q.     H        E   
---------------------------------------------|---------------------|
---------------------------------------------|---------------------|
-----------14-15-17-15-14--------------------|---------------------|
--14-15-17----------------17-15-14----14s----|--5------------------|
-----------------------------------17--------|--5------------------|
---------------------------------------------|--5------------------|


                      PM PM PM PM PM PM  
    |--3--|  |--3--|  |--3--|  |--3--|   
    E  E  E  E  E  E  E  E  E  E  E  E   
|---------------------------------------|
|---------------------------------------|
|*--------------------------------------|
|*--------------------------------------|
|---------------------------------------|
|---8--5--0--8--5--0--8--7--5--8--7--5--|


                                                            PM PM PM PM PM PM  
  |--3--|  |--3--|  |--3--|  |---3--|     |--3--|  |--3--|  |--3--|  |--3--|   
  E  E  E  E  E  E  E  E  E  E  E   E     E  E  E  E  E  E  E  E  E  E  E  E   
---------------------------------------|--------------------------------------|
---------------------------------------|--------------------------------------|
---------------------------------------|--------------------------------------|
-----------------------------7--8--10--|--------------------------------------|
--------------------5--7--8------------|--------------------------------------|
--8--5--0--8--5--0---------------------|--7--4--0--7--4--0--7--5--4--7--5--4--|


  |--3--|  |--3--|  |--3--|  |--3--|                         
  E  E  E  E  E  E  E  E  E  E  E  E       W                 
---------------------------------------||-------------------|
---------------------------------------||-------------------|
-----------------------------6--7--9--*||-------------------|
--------------------4--5--7-----------*||-------------------|
---------------------------------------||-------------------|
--7--4--0--7--4--0---------------------||-------------------|


  not sure about this section                      
  W                              W                 
------------------------------|-------------------|
------------------------------|-------------------|
------------------------------|-------------------|
------------------------------|-------------------|
------------------------------|-------------------|
------------------------------|-------------------|


  E  E  S S S S E  E  S S E     E  E  S S E  S  S  E  E  E   
-----------------------------|------------------------------|
-----------------------------|------------------------------|
-----------------------------|------------------------------|
----------------8--7---------|------------------------------|
--------8-8-7-7-----------8--|--------8-7-5--0h-5-10--8-----|
--0--0----------------0-0----|--0--0---------------------7--|


  E  E  S S S S E  E  S S E  E  E     S  S  E  E  E  E   E  E    E    
-----------------------------------|---------------------------------|
-----------------------------------|---------------------------------|
-----------------------------------|---------------------------------|
----------------8--7---------------|---------------------------------|
--------8-8-7-7-----------8--------|--7p-5p-4--5--7-----10--8--------|
--0--0----------------0-0----0--0--|-----------------7---------<>7b--|


  E  E  S S S S E  E  S S E     E  E  S S E  S  S  E  E  E   
-----------------------------|------------------------------|
-----------------------------|------------------------------|
-----------------------------|------------------------------|
----------------8--7---------|------------------------------|
--------8-8-7-7-----------8--|--------8-7-5--0h-5-10--8-----|
--0--0----------------0-0----|--0--0---------------------7--|


  E  E  S  S  E  E  E  S S E     E  E  S  S  E  S  S  E   
------------------------------|--------------------------|
------------------------------|--------------------------|
-----------------7--5---------|--------------------------|
--------7p-5p-3--------0-0-3--|--------0h-2h-5--0h-3h-7--|
--3--3------------------------|--------------------------|
------------------------------|--8--8--------------------|


  S S  E  H        Q         S S E  E  E  E  E  S S E   
------------------------||-----------------------------|
------------------------||-----------------------------|
------------------------||*----------------------------|
--7-8-10----------------||*---------7--7---------------|
------------------------||----------------5--5---------|
------------------------||---0-0-0--------------0-0-0--|


  E  E  E  E  E  E  E  E     S S E  E  E  E  E  S S E   
--------------------------|----------------------------|
--------------------------|----------------------------|
--------------------------|----------------------------|
--7--7--------------5--8--|---------8--8---------------|
--------5--5--4--7--------|---------------7--7---------|
--------------------------|--0-0-0--------------0-0-0--|


  E  E  E  E  E   E  E  E        S  S  S  S  S  S  S  S  S  S  S  S  Q      
----------------------------||---------------------------------------------|
----------------------------||---------------------------------------------|
---------------------------*||-----------14-15-17-15-14--------------------|
---------------------------*||--14-15-17----------------17-15-14----14s----|
--5--8--7--8--5--10--8--7---||-----------------------------------17--------|
----------------------------||---------------------------------------------|


  S S E  E  E  E  E  S S E     E  E  E  E  E  E  E  E   
----------------------------|--------------------------|
----------------------------|--------------------------|
----------------------------|--------------------------|
---------7--7---------------|--7--7--------------5--8--|
---------------5--5---------|--------5--5--4--7--------|
--0-0-0--------------0-0-0--|--------------------------|


                               PM PM PM  PM PM PM PM PM  
  S S E  E  E  E  E  S S E     E  E  E   E  E  E  E  E   
----------------------------|---------------------------|
----------------------------|---------------------------|
----------------------------|---------------------------|
---------8--8---------------|------------------8--7--5--|
---------------7--7---------|--5--8--7--10--5-----------|
--0-0-0--------------0-0-0--|---------------------------|


  S S E  E  E  E  E  S S E     E  E  E  E  E  E  E  E   
----------------------------|--------------------------|
----------------------------|--------------------------|
----------------------------|--------------------------|
---------7--7---------------|--7--7--------------5--8--|
---------------5--5---------|--------5--5--4--7--------|
--0-0-0--------------0-0-0--|--------------------------|


  S S E  E  E  E  E  E  E     H        Q.     E   
---------------------------|---------------------|
---------------------------|---------------------|
---------------------------|---------------------|
---------8--8--------------|--7--------3---------|
---------------7--7--------|--8--------5---------|
--0-0-0--------------0--0--|--7--------0------0--|


    Q.       S   S  E  E  E  E       H         H          
--------------------------------|-----------------------||
--------------------------------|-----------------------||
--------------------------------|-----------------------||
--------------------------------|-----------------------||
------------(0)-(0)-8--7--5--4--|--<>5\-----------------||
--<>7~-------0---0--------------|-----------------------||




Duration Legend
---------------
W - whole
H - half
Q - quarter
E - 8th
S - 16th
T - 32nd
X - 64th
. - note dotted
|-n-|  - n-tuplets


Tablature Legend
----------------
L - tied note
x - dead note
g - grace note
(n) - ghost note
> - accentuded note
NH - natural harmonic
AH - artificial harmonic
TH - tapped harmonic
SH - semi harmonic
PH - pitch harmonic
h - hammer on
p - pull off
b - bend
br - bendRelease
pb - preBend
pbr - preBendRelease
brb - bendReleaseBend
\n/ - tremolo bar dip
\n - tremolo bar dive
-/n - tremolo bar Release up
/n\ - tremolo bar inverted dip
/n - tremolo bar return
-\n - tremolo bar Release down
S - shift slide
s - legato slide
/ -  slide into from below or out of upwards
\ -  slide into from above or out of downwards
~ - vibrato
W - wide vibrato
tr - trill
TP - tremolo picking
T - tapping
S - slap
P - pop
< - fade in
^ - brush up
v - brush down
comments
We did not receive enough feedback on this tab! Please rate:
1 2 3 4 5
I want to post or [tab]
guest
You may want to rate the tab now too:
select rating
Please do not post tabs as comments. Select "correction" instead!