Oops, an error
Loading. Please wait.

Harbinger Tab

ver1
ver1

Intro

Whole song

Interactive

More versions @911Tabs.com
2,024 views 3 this week
1 commentread comment
1 2 3 4 5
accurate
x 1
Autoscroll
+/-
esc
set tempo
stop
Contributor
Difficulty
Tuning
novice
C G C F A D
Hey! There's an official Ultimate Guitar app which is ideal
for learning songs when you're away from computer. Get the app
WARNING: You are trying to view
                                    content from Ultimate-Guitar.com
                                    in an unauthorized application,
                                    which is prohibited.

                                    Please use an official Ultimate
                                    Guitar Tabs application for iPhone,
                                    iPad or Android to access legitimate
                                    chords, guitar, bass, and drum tabs
                                    from Ultimate-Guitar.com database.

                                    Type "ultimate guitar tabs" in Apple
                                    App Store's or Android Market's
                                    search to find the application.
                 Harbinger                                     
             The Human Abstract

Tab By : Rylaxit
Exported in GP5



     H        Q       Q    E  Q    E        Q    Q     Q     
D||----------------|------------------|---------------------|
A||----------------|----------8----8--|--8g10----8----------|
F||----------------|--7----7----------|---------------10----|
C||----------------|------------------|---------------------|
G||----------------|------------------|---------------------|
C||----------------|------------------|---------------------|


  Q     Q    E   E      H         E   E      Q    Q     Q     
--8----10----8------|--------------------|-------------------|
----------------10--|--11--------13--11--|--10----8----------|
--------------------|--------------------|-------------10----|
--------------------|--------------------|-------------------|
--------------------|--------------------|-------------------|
--------------------|--------------------|-------------------|


               |--3--|                                              
  E   E  E  E  S  S  S  E     E  E  E  E  E  E     Q    E  E  Q     
---------------------------|--------------------|------------------|
--8------------------------|-----4--3--4--3-----|--3-------3-------|
-----10--8--7--5h-7p-5S-3--|--5--------------5--|-------5-----3----|
---------------------------|--------------------|------------------|
---------------------------|--------------------|------------------|
---------------------------|--------------------|------------------|


   H        Q       H        Q       Q      Q    Q       Q    H         
-----------------|----------------|-------4g6---------|----------------|
------------1----|--0--------1----|--4-----------6----|--8----6--------|
-----------------|----------------|-------------------|----------------|
--10-------------|----------------|-------------------|----------------|
-----------------|----------------|-------------------|----------------|
-----------------|----------------|-------------------|----------------|


  E  E  H           E  E  E  E  E  E     E  E  Q    Q       Q    Q    E  E   
-----------------|--------------------|------------------|------------------|
--8--6--4--------|--6--4--------------|------------------|------------------|
-----------------|--------2--5--2-----|------------------|------------------|
-----------------|-----------------4--|--1--4--0----1----|--3----4----7--5--|
-----------------|--------------------|------------------|------------------|
-----------------|--------------------|------------------|------------------|


  E  E   H            H.              Q    E  Q    E        Q    Q     Q     
-------------------|---------------|------------------|---------------------|
-------------------|---------------|----------8----8--|--8g10----8----------|
-------------------|---------------|--7----7----------|---------------10----|
--7--LS--9~--------|--L------------|------------------|---------------------|
-------------------|---------------|------------------|---------------------|
-------------------|---------------|------------------|---------------------|


  Q     Q    E   E      H          E   E      Q    Q     Q     
--8----10----8------|---------------------|-------------------|
----------------10--|--11~--------13--11--|--10----8----------|
--------------------|---------------------|-------------10----|
--------------------|---------------------|-------------------|
--------------------|---------------------|-------------------|
--------------------|---------------------|-------------------|


               |--3--|                                              
  E   E  E  E  S  S  S  E     E  E  E  E  E  E     Q    E  E  Q     
---------------------------|--------------------|------------------|
--8------------------------|-----4--3--4--3-----|--3-------3-------|
-----10--8--7--5h-7p-5S-3--|--5--------------5--|-------5-----3----|
---------------------------|--------------------|------------------|
---------------------------|--------------------|------------------|
---------------------------|--------------------|------------------|


            PM PM PM PM PM PM                                       
            |--3--|  |--3--|                                        
   H        S  S  S  S  S  S      Q    E  E  Q       Q    H         
------------------------------|-------------------|----------------|
------------------------6--9--|--11----6--8--6----|--8----6--------|
------------------5--7--------|-------------------|----------------|
--10-----------6--------------|-------------------|----------------|
------------5-----------------|-------------------|----------------|
------------------------------|-------------------|----------------|


  E  E  H           E  E  E  E  E  E     E  E  Q    Q       Q    Q    E  E   
-----------------|--------------------|------------------|------------------|
--8--6--4--------|--6--4--------------|------------------|------------------|
-----------------|--------2--5--2-----|------------------|------------------|
-----------------|-----------------4--|--1--4--0----1----|--3----4----7--5--|
-----------------|--------------------|------------------|------------------|
-----------------|--------------------|------------------|------------------|


                                                                      |--3--|  
  E  E   H            H.              S S  S  S S S  S S S  S S S S S S  S  S  
-------------------|---------------|------------------------------------------|
-------------------|---------------|------------------------------------------|
-------------------|---------------|------------------------------------------|
--7--LS--9~--------|--L------------|------------------------------------------|
-------------------|---------------|------11p-8-----10-----10---6---8-5h-7h-8-|
-------------------|---------------|--0-0-------0-0----0-0----0---0-----------|


  S S S  S S S S S  S S S S   Q     
-----------------------------------|
-----------------------------------|
-----------------------------------|
-----------------------------------|
----8---10---6---5S-6---8----------|
--0---0----0---0------0---0-<>5----|


                               |---3--|  |--3-|  
  S S S  S S S S S   S S  S S  S  S   S  S  S S  
------------------------------------------------|
------------------------------------------------|
------------------------------------------------|
------------------------------10p-9h-10p-9------|
------6h-8-------8h-10---10----------------10-8-|
--0-0------0-0-0-------0----0-------------------|


  S S S   S S S S  S   S  S S  S S  S S  S  
-------------------------------------------|
-------------------------------------------|
-------------------------------------------|
------9h-10-------12p-10p-9---10---17---13-|
-------------------------------------------|
--0-0-------0-0-0-----------0----0----0----|


  T T T T  E  E  T T T T E  E  T T T T E   
------------------------------------------|
------------------------------------------|
------------------------------------------|
------------------------------------------|
----------10--6----------8--5----------2--|
--0-0-0-0--------0-0-0-0-------0-0-0-0----|


                            PM                       
                                           |---3--|  
  E  T T T T  E  E  T T T T S  S   E   T T T  T   T  
----------------------------------------------------|
----------------------------------------------------|
----------------------------------------------------|
----------------------------------------------------|
--3----------10--6---------------<>5\---------------|
-----0-0-0-0--------0-0-0-0-5--6-------0-0-5h-8h-10-|


  T T T T  E  E  T T T T E   E  T T T T E   
-------------------------------------------|
-------------------------------------------|
-------------------------------------------|
-------------------------------------------|
----------10--6----------8--11----------6--|
--0-0-0-0--------0-0-0-0--------0-0-0-0----|


                                 |--3--|                                     
   E  S S S S S   S  S S S S S S S  S  S    S S S S S S S S S S S S S S S S  
-----------------------------------------|----------------------------------|
-----------------------------------------|----------------------------------|
-----------------------------------------|----------------------------------|
--------3---6---<>6~-----5---5-----------|----------------------------------|
--10-----------------------------6p-5p-3-|----------3-3-3-3-----------------|
------0---0---0------0-0---0---0---------|--0-0-0-0---------0-0-0-0-6-6-6-6-|


  S S S S S S S S S S S S S S S S    S S S S S S S S S S S S S S S S  
----------------------------------|----------------------------------|
----------------------------------|----------------------------------|
----------------------------------|----------------------------------|
----------------------------------|----------------------------------|
----------4-4-4-4-----------------|----------3-3-3-3-----------------|
--0-0-0-0---------0-0-0-0-5-5-5-5-|--0-0-0-0---------0-0-0-0-6-6-6-6-|


  S S S S S S S S  S S S S S S   E    
-------------------------------------|
-------------------------------------|
-------------------------------------|
-------------------------------------|
--------3-----2-5-10---8---6---------|
--0-0-0---0-0--------0---0---0-<>8~--|


                      T          T          T                          
   |---3--|  |--3--|  |---3---|  |---3---|  |---3---|  |--3--|         
   S   S  S  S  S  S  S   S   S  S   S   S  S   S   S  S  S  S  Q      
------------------11-20p-15p-11-20p-15p-11-20p-15p-11-----------------|
---------------13-------------------------------------13--------------|
------------12-------------------------------------------12-----------|
---------13-------------------------------------------------13--------|
--10h-15-------------------------------------------------------15~----|
----------------------------------------------------------------------|


                  T         T         T                       
  |---3--| |-3-|  |---3--|  |---3--|  |---3--| |--3-|         
  S   S  S S S S  S   S  S  S   S  S  S   S  S S S  S  Q      
---------------8-16p-11p-8-16p-11p-8-16p-11p-8---------------|
-------------9---------------------------------9-------------|
-----------8-------------------------------------8-----------|
--------10-----------------------------------------10--------|
--6h-11-----------------------------------------------11~----|
-------------------------------------------------------------|


                 T         T         T                      
  |--3--| |-3-|  |---3--|  |---3--|  |---3--| |-3-|         
  S   S S S S S  S   S  S  S   S  S  S   S  S S S S  Q      
--------------7-15p-10p-7-15p-10p-7-15p-10p-7--------------|
------------8---------------------------------8------------|
----------7-------------------------------------7----------|
--------9-----------------------------------------9--------|
--5h-10---------------------------------------------10~----|
-----------------------------------------------------------|


                T        T        T                    
  |--3-| |-3-|  |--3--|  |--3--|  |--3--| |-3-|        
  S  S S S S S  S  S  S  S  S  S  S  S  S S S S E  E   
-------------4-13p-8p-4-13p-8p-4-13p-8p-4-------------|
-----------6------------------------------6-----------|
---------5----------------------------------5---------|
-------6--------------------------------------6-------|
--3h-8------------------------------------------8--6--|
------------------------------------------------------|


                                                 |---3---|            
  S S S S S S S S S S S S S S S S      E.   E.   S   S   S H          
----------------------------------|----------------------------------|
------------------------------6-9-|----------------------------------|
------4-7-------------4-7-4-7-----|--/13---12---10h-12p-10-7~--------|
----------3-6-3-6-3-6-------------|----------------------------------|
--5-8-----------------------------|----------------------------------|
----------------------------------|----------------------------------|


  W                      H         E   E   E   E   
---------------------|----------------------------|
---------------------|----------------------------|
--8S~----------------|--12--------10--12--13--15--|
---------------------|----------------------------|
---------------------|----------------------------|
---------------------|----------------------------|


       |---3---|                                                      
   E   S   S   S  E   E   E   E   E   E      Q.       E    H          
-----------------------------------------|---------------------------|
-----------------------------------------|---------------------------|
--17--15h-17p-15-13--12--13--15--13--12--|--10~------10~--10~--------|
-----------------------------------------|---------------------------|
-----------------------------------------|---------------------------|
-----------------------------------------|---------------------------|


           |---3---|                  |---3---|  
   E   E   S   S   S  E   E   E   E   S   S   S  
------------------------------------------------|
------------------------------------------------|
--12--17--15h-17p-15-13--12--13--15--12h-13p-12-|
------------------------------------------------|
------------------------------------------------|
------------------------------------------------|


   PM PM PM PM                                                       
   T  T  T  T  E   E   E   E   E  E   E       H           H          
-----------------------------------------|--------------------------|
-----------13-14--13--11--13--11--8--11--|--/15~--------/20~--------|
--------12-------------------------------|--------------------------|
-----13----------------------------------|--------------------------|
--15-------------------------------------|--------------------------|
-----------------------------------------|--------------------------|


               |---3---|  |---3---|  |---3---|  |---3---|  
    H          S   S   S  S   S   S  S   S   S  S   S   S  
----------------------------------------------------------|
--/16~----------------------------------------------------|
--------------16p-15p-13----------------------------------|
-------------------------15p-13p-12-----------------------|
------------------------------------15p-13p-12------------|
-----------------------------------------------13p-11p-10-|


    PM PM          PM PM              PM PM          PM PM              
    S  S  H        S  S  S  S S  S    S  S  H        S  S  S  S S  S    
|----------------------------------|----------------------------------||
|----------------------------------|----------------------------------||
|*---------------------------------|---------------------------------*||
|*--5--5--5--------5--5--6p-5-6h-8-|--------6------------------------*||
|---3--3--3--------3--3------------|--6--6--6--------6--6--5p-3-5h-6--||
|----------------------------------|--6--6--6--------6--6-------------||


    PM PM    PM PM        PM        PM    PM    PM        PM        
    S  S  S  S  S  S   S  S  S   S  S  S  S  S  S  S   S  S  S   S  
-------------------------------------------------------------------|
----------------------------13p-11----------------13p-11-----------|
*--------15-------13h-15--------------13----15--------------13h-15-|
*--10-10----10-10--------10--------10----10----10--------10--------|
-------------------------------------------------------------------|
-------------------------------------------------------------------|


   PM PM        PM        PM        PM    PM    PM        PM         
   S  S  S   S  S  S   S  S  S   S  S  S  S  S  S  S   S  S  S  S    
-------------------------------------------------------------------||
-------------------------------------------------------------------||
--------12p-10----10h-12----13p-10----10----12----13p-12----10p-8-*||
------------------------------------------------------------------*||
--11-11--------11--------11--------11----11----11--------11--------||
-------------------------------------------------------------------||


   PM PM    PM PM        PM        PM    PM    PM    
   S  S  S  S  S  S   S  S  S   S  S  S  S  S  S  S  
----------------------------------------------------|
---------------------------13p-11----------------13-|
--------15-------13h-15--------------13----15-------|
--10-10----10-10--------10--------10----10----10----|
----------------------------------------------------|
----------------------------------------------------|


   PM PM    PM PM        PM        PM    PM    PM    
   S  S  S  S  S  S   S  S  S   S  S  S  S  S  S  S  
----------------------------------------------------|
----------------------------------------------------|
--------17-------15h-17----18p-17----15----17----18-|
----------------------------------------------------|
--16-16----16-16--------16--------16----16----16----|
----------------------------------------------------|


   PM PM    PM PM        PM        PM    PM    PM    
   S  S  S  S  S  S   S  S  S   S  S  S  S  S  S  S  
----------------------------------------------------|
--------18-------16h-18----20p-18----16----18----20-|
----------------------------------------------------|
--17-17----17-17--------17--------17----17----17----|
----------------------------------------------------|
----------------------------------------------------|


   PM PM    PM PM        PM        PM    PM    PM                          
   S  S  S  S  S  S   S  S  S   S  S  S  S  S  S  S    W                   
----------------------------------------------------|--------------------||
----------------------------------------------------|--------------------||
--------13-------12h-13----16p-13----12----13----16-|--------------------||
----------------------------------------------------|--------------------||
--14-14----14-14--------14--------14----14----14----|--6~----------------||
----------------------------------------------------|--------------------||




Duration Legend
---------------
W - whole
H - half
Q - quarter
E - 8th
S - 16th
T - 32nd
X - 64th
. - note dotted
|-n-|  - n-tuplets


Tablature Legend
----------------
L - tied note
x - dead note
g - grace note
(n) - ghost note
> - accentuded note
NH - natural harmonic
AH - artificial harmonic
TH - tapped harmonic
SH - semi harmonic
PH - pitch harmonic
h - hammer on
p - pull off
b - bend
br - bendRelease
pb - preBend
pbr - preBendRelease
brb - bendReleaseBend
\n/ - tremolo bar dip
\n - tremolo bar dive
-/n - tremolo bar Release up
/n\ - tremolo bar inverted dip
/n - tremolo bar return
-\n - tremolo bar Release down
S - shift slide
s - legato slide
/ -  slide into from below or out of upwards
\ -  slide into from above or out of downwards
~ - vibrato
W - wide vibrato
tr - trill
TP - tremolo picking
T - tapping
S - slap
P - pop
< - fade in
^ - brush up
v - brush down
comments
We did not receive enough feedback on this tab! Please rate:
print report bad tab
1 2 3 4 5
1 comment total.
0 reply
thisryanthe wrote on March 18 2012, 06:12 pm

I would have rated 5 stars if only the parts were labeled. For example, verse 1, chorus, etc...

I want to post or [tab]
guest
You may want to rate the tab now too:
select rating
Please do not post tabs as comments. Select "correction" instead!