Oops, an error
Loading. Please wait.

Mea Culpa Bass Tab

ver1
ver1

Whole song

Interactive

More versions @911Tabs.com
2,828 views 1 this week
1 commentread comment
1 2 3 4 5
excellent!
x 2
Autoscroll
+/-
esc
set tempo
stop
Contributor
Difficulty
Tuning
advanced
C G C F A D
WARNING: You are trying to view
                                    content from Ultimate-Guitar.com
                                    in an unauthorized application,
                                    which is prohibited.

                                    Please use an official Ultimate
                                    Guitar Tabs application for iPhone,
                                    iPad or Android to access legitimate
                                    chords, guitar, bass, and drum tabs
                                    from Ultimate-Guitar.com database.

                                    Type "ultimate guitar tabs" in Apple
                                    App Store's or Android Market's
                                    search to find the application.
                                            Mea Culpa                                               


Bass
     S S E  H.           S S Q.     S S E  S S E  S S Q.     S S E  S S E   
F||------------------------------------------------------------------------|
C||------------------------------------------------------------------------|
G||----------------------------------------8-8----9-9----------------------|
C||--4-4-----------------6-6--------9-9----------------------4-4----6-6----|
A||------------------------------------------------------------------------|


  W                S S Q.     S S E  S S E  S S Q.     S S E  S S E     H         
---------------------------------------------------------------------|-----------|
---------------------------------------------------------------------|-----------|
-------------------------------------8-8----9-9----------------------|-----------|
--4----------------6-6--------9-9----------------------4-4----6-6----|-----------|
---------------------------------------------------------------------|-----------|


  E  S E  S E  S S S S Q       S S S S S S S S S S S S S S S S    S S S S S S S S S S S S S S S S  
----------------------------|----------------------------------|----------------------------------|
----------------------------|----------------------------------|----------------------------------|
----------------------------|----------------------------------|----------------------------------|
-----0----0----4------------|--4-4-7-7-7-7-7-7-7-7-9-9-9-9-9-9-|--3-3-6-6-6-6-6-6-6-6-7-7-7-7-7-7-|
----------------------------|----------------------------------|----------------------------------|


  S S S S S S S S S S S S S S S S    S S S S  S  S  S  S S S S S S S S S  
----------------------------------|--------------------------------------|
----------------------------------|--------------------------------------|
----------------------------------|--8-8-8-8-----------------------------|
--0-0-4-4-4-4-4-4-4-4-6-6-6-6-6-6-|----------11-11-11-11-9-9-9-9-0-0-0-0-|
----------------------------------|--------------------------------------|


  S S S S S S S S S S S S S S S S    S S S S S S S S S S S S S S S S  
----------------------------------|----------------------------------|
----------------------------------|----------------------------------|
----------------------------------|----------------------------------|
--4-4-7-7-7-7-7-7-7-7-9-9-9-9-9-9-|--3-3-6-6-6-6-6-6-6-6-7-7-7-7-7-7-|
----------------------------------|----------------------------------|


  S S S S S S S S S S S S S S S S    S S S S  S  S  S  S S S S S S S S S  
----------------------------------|--------------------------------------|
----------------------------------|--------------------------------------|
----------------------------------|--8-8-8-8---------------------4-4-----|
--0-0-4-4-4-4-4-4-4-4-6-6-6-6-6-6-|----------11-11-11-11-0-0-------------|
----------------------------------|--------------------------------------|


  T T T T T T T T  T T T T T T      T  T T T T  T T  T   T T  T T T  T   
  S S S S S S S E  S S S S S E      S  S S S S  S S  E   S S  S S S  E   
--------------------------------|---------------------------------------|
------9---9-----7----9---9---7--|--11----9---9----------11---11-----11--|
--7-----------9-----------------|-----------------9-------------9-------|
----7---9---7------7---7---9----|-----11---9---11---11-----9------9-----|
--------------------------------|---------------------------------------|


  T T T T T T T T  T T T T T T     T T T T T T T T  T T T T T T     T T T T T T T T  T T T T T T   
  S S S S S S S E  S S S S S E     S S S S S S S E  S S S S S E     S S S S S S S E  S S S S S E   
--------------------------------|-------------------9------------|--------------------------------|
--9---7---7--------9---9-----9--|--9---7-----9---9------9---9----|------9---9-----7----9---9---7--|
--------------7----------7------|----------9---7------9----------|--7-----------9-----------------|
----9---7---9---9----7-----7----|----9---7----------------7---7--|----7---9---7------7---7---9----|
--------------------------------|--------------------------------|--------------------------------|


   T  T T   T  T T  T   T T  T T T  T     T T T T T T T T  T T T T T T   
   S  S S S S  S S  E   S S  S S S  E     S S S S S S S E  S S S S S E   
---------------------------------------|--------------------------------|
--11----9---9----------11---11-----11--|--9---7---7--------9---9-----9--|
-----------------9-------------9-------|--------------7----------7------|
-----11---9---11---11-----9------9-----|----9---7---9---9----7-----7----|
---------------------------------------|--------------------------------|


  T T T T T T T T  T T T T T T                                      
  S S S S S S S E  S S S S S E     S S S S S S S S S S S S S S S S  
-------------------9------------|----------------------------------|
--9---7-----9---9------9---9----|----------------------------------|
----------9---7------9----------|----------------------------------|
----9---7----------------7---7--|--4-4-7-7-7-7-7-7-7-7-9-9-9-9-9-9-|
--------------------------------|----------------------------------|


  S S S S S S S S S S S S S S S S    S S S S S S S S S S S S S S S S  
----------------------------------|----------------------------------|
----------------------------------|----------------------------------|
----------------------------------|----------------------------------|
--3-3-6-6-6-6-6-6-6-6-7-7-7-7-7-7-|--0-0-4-4-4-4-4-4-4-4-6-6-6-6-6-6-|
----------------------------------|----------------------------------|


  S S S S  S  S  S  S S S S S S S S S    S S S S S S S S S S S S S S S S  
--------------------------------------|----------------------------------|
--------------------------------------|----------------------------------|
--8-8-8-8-----------------------------|----------------------------------|
----------11-11-11-11-9-9-9-9-0-0-0-0-|--4-4-7-7-7-7-7-7-7-7-9-9-9-9-9-9-|
--------------------------------------|----------------------------------|


  S S S S S S S S S S S S S S S S    S S S S S S S S S S S S S S S S  
----------------------------------|----------------------------------|
----------------------------------|----------------------------------|
----------------------------------|----------------------------------|
--3-3-6-6-6-6-6-6-6-6-7-7-7-7-7-7-|--0-0-4-4-4-4-4-4-4-4-6-6-6-6-6-6-|
----------------------------------|----------------------------------|


  S S S S  S  S  S  S S S S S S S S S    E  E  E  E  E  E  E  E     E  E  E  E  E  E  E  E   
--------------------------------------|--------------------------|--------------------------|
--------------------------------------|--------------------------|--------------------------|
--8-8-8-8-----------------------------|--------------------------|--------------------------|
----------11-11-11-11-9-9-9-9-0-0-0-0-|--4--4--4--4--4--4--4--4--|--3--3--3--3--3--3--3--3--|
--------------------------------------|--------------------------|--------------------------|


  E  E  E  E  E  E  E  E     W                   E  E  E  E  E  E  E  E   
--------------------------|-------------------|--------------------------|
--------------------------|-------------------|--------------------------|
--------------------------|-------------------|--------------------------|
--0--0--0--0--0--0--0--0--|-------------------|--4--4--4--4--4--4--4--4--|
--------------------------|-------------------|--------------------------|


  E  E  E  E  E  E  E  E     E  E  E  E  E  E  E  E     W                 
--------------------------|--------------------------|-------------------|
--------------------------|--------------------------|-------------------|
--------------------------|--------------------------|-------------------|
--3--3--3--3--3--3--3--3--|--0--0--0--0--0--0--0--0--|-------------------|
--------------------------|--------------------------|-------------------|


  E  E  E  E  E  E  E  E     E  E  E  E  E  E  E  E     E  E  E  E  E  E  Q     
--------------------------|--------------------------|-------------------------|
--------------------------|--------------------------|-------------------------|
--------------------------|--------------------------|-------------------------|
--4--4--4--4--4--4--4--4--|--3--3--3--3--3--3--3--3--|--9--9--9--7--7--7-------|
--------------------------|--------------------------|-------------------------|


                             T T T T T T T T  T T T T T T      T  T T T T  T T  T   T T  T T T  T   
   E   E   E  E  H           S S S S S S S E  S S S S S E      S  S S S S  S S  E   S S  S S S  E   
--------------------------|--------------------------------|---------------------------------------|
--------------------------|------9---9-----7----9---9---7--|--11----9---9----------11---11-----11--|
--------------------------|--7-----------9-----------------|-----------------9-------------9-------|
--11--11--11--------------|----7---9---7------7---7---9----|-----11---9---11---11-----9------9-----|
--------------------------|--------------------------------|---------------------------------------|


  T T T T T T T T  T T T T T T     T T T T T T T T  T T T T T T     T T T T T T T T  T T T T T T   
  S S S S S S S E  S S S S S E     S S S S S S S E  S S S S S E     S S S S S S S E  S S S S S E   
--------------------------------|-------------------9------------|--------------------------------|
--9---7---7--------9---9-----9--|--9---7-----9---9------9---9----|------9---9-----7----9---9---7--|
--------------7----------7------|----------9---7------9----------|--7-----------9-----------------|
----9---7---9---9----7-----7----|----9---7----------------7---7--|----7---9---7------7---7---9----|
--------------------------------|--------------------------------|--------------------------------|


   T  T T   T  T T  T   T T  T T T  T     T T T T T T T T  T T T T T T   
   S  S S S S  S S  E   S S  S S S  E     S S S S S S S E  S S S S S E   
---------------------------------------|--------------------------------|
--11----9---9----------11---11-----11--|--9---7---7--------9---9-----9--|
-----------------9-------------9-------|--------------7----------7------|
-----11---9---11---11-----9------9-----|----9---7---9---9----7-----7----|
---------------------------------------|--------------------------------|


  T T T T T T T  T  T T T T T T                                                               
  S S S S S S S  E  S S S S S E     W                   W                   W                 
--------------------9------------|-------------------|-------------------|-------------------|
--9---7-----9-----------9---9----|-------------------|-------------------|-------------------|
----------9---7-11----9----------|--0----------------|--4----------------|-------------------|
----9---7-----------------7---7--|-------------------|-------------------|--4----------------|
---------------------------------|-------------------|-------------------|-------------------|


  W                   W                   W                   W                   W                 
-------------------|-------------------|-------------------|-------------------|-------------------|
-------------------|-------------------|-------------------|-------------------|-------------------|
-------------------|--5----------------|--7----------------|--9----------------|--L----------------|
--L----------------|-------------------|-------------------|-------------------|-------------------|
-------------------|-------------------|-------------------|-------------------|-------------------|


  W                   W                   W                   W                 
-------------------|-------------------|-------------------|-------------------|
-------------------|-------------------|-------------------|-------------------|
--0----------------|--4----------------|-------------------|-------------------|
-------------------|-------------------|--4----------------|--L----------------|
-------------------|-------------------|-------------------|-------------------|


   W                   W                   W                    H        E   E   E  E   
--------------------|-------------------|-------------------|--------------------------|
--------------------|-------------------|-------------------|--11--------9-------------|
--\5----------------|--7----------------|--9----------------|---------------12--11--9--|
--------------------|-------------------|-------------------|--------------------------|
--------------------|-------------------|-------------------|--------------------------|


  E  E  E  E  E  E  E  E     E  E  E  E  E  E  E  E     E  E  E  E  E  E  E  E   
--------------------------|--------------------------|--------------------------|
--------------------------|--------------------------|--------------------------|
--0--0--0--0--0--0--0--0--|--4--4--4--4--4--4--4--4--|--------------------------|
--------------------------|--------------------------|--4--4--4--4--4--4--4--4--|
--------------------------|--------------------------|--------------------------|


  E  E  E  E  E  E  E  E     W                   W                   W                 
--------------------------|-------------------|-------------------|-------------------|
--------------------------|-------------------|-------------------|-------------------|
--------------------------|--5----------------|--7----------------|--9----------------|
--4--4--4--4--4--4--4--4--|-------------------|-------------------|-------------------|
--------------------------|-------------------|-------------------|-------------------|


  W                   E  E  E  E  E  E  E  E     E  E  E  E  E  E  E  E   
-------------------|--------------------------|--------------------------|
-------------------|--------------------------|--------------------------|
--L----------------|--------------------------|--0--0--0--0--0--0--0--0--|
-------------------|--4--4--4--4--4--4--4--4--|--------------------------|
-------------------|--------------------------|--------------------------|


  E  E  E  E  E  E  E  E     E  E  E  E  E  E  E  E     E  E  E  E  E  E  E  E   
--------------------------|--------------------------|--------------------------|
--------------------------|--------------------------|--------------------------|
--------------------------|--------------------------|--2--2--2--2--2--2--2--2--|
--0--0--0--0--0--0--0--0--|--0--0--0--0--0--0--0--0--|--------------------------|
--------------------------|--------------------------|--------------------------|


  E  E  E  E  E  E  E  E     E  E  E  E  E  E  E  E     Q    Q    E  E  E  E   
--------------------------|--------------------------|------------------------|
--------------------------|--------------------------|------------------------|
--4--4--4--4--4--4--4--4--|--5--5--5--5--5--5--5--5--|------------------------|
--------------------------|--------------------------|------------------------|
--------------------------|--------------------------|--2----2----6--6--6--6--|


  E  E  H.              E  E  H.              E  E  H.              E  E  H.            
---------------------|---------------------|---------------------|---------------------|
---------------------|---------------------|--0--0--0------------|---------------------|
---------------------|--0--0--0------------|---------------------|---------------------|
--4--4--4------------|---------------------|---------------------|--0--0--0------------|
---------------------|---------------------|---------------------|---------------------|


  E  E  H.              E  E  H.              E  E  H.              H        H         
---------------------|---------------------|---------------------|--------------------|
---------------------|---------------------|---------------------|--------------------|
--2--2--2------------|--4--4--4------------|--5--5--5------------|--------------------|
---------------------|---------------------|---------------------|--------------------|
---------------------|---------------------|---------------------|--2--------6--------|


  W                   H        H          
-------------------|--------------------||
-------------------|--------------------||
-------------------|--------------------||
--4----------------|--L-----------------||
-------------------|--------------------||

comments
We did not receive enough feedback on this tab! Please rate:
print report bad tab
1 2 3 4 5
1 comment total.
0 reply
seventyXseven wrote on January 28 2008, 10:36 am

He doesn't tap that one part near the beginning he plays it all with his fingers

I want to post or [tab]
guest
You may want to rate the tab now too:
select rating
Please do not post tabs as comments. Select "correction" instead!