Oops, an error
Loading. Please wait.

Movement From Discord Tab

ver1
ver1

Whole song

Interactive

More versions @911Tabs.com
1,039 views 3 this week
1 commentread comment
1 2 3 4 5
accurate
x 1
Autoscroll
+/-
esc
set tempo
stop
Contributor
Difficulty
Tuning
novice
C G C F A D
Hey! There's an official Ultimate Guitar app which is ideal
for learning songs when you're away from computer. Get the app
WARNING: You are trying to view
                                    content from Ultimate-Guitar.com
                                    in an unauthorized application,
                                    which is prohibited.

                                    Please use an official Ultimate
                                    Guitar Tabs application for iPhone,
                                    iPad or Android to access legitimate
                                    chords, guitar, bass, and drum tabs
                                    from Ultimate-Guitar.com database.

                                    Type "ultimate guitar tabs" in Apple
                                    App Store's or Android Market's
                                    search to find the application.
               Movement From Discord                               
                 The Human Abstract

Tab By : Ryaxit
Exported from GP5


     |--3--|   |---3---|   |---3---|  |---3---|   
     E  E  E   E    E  E   E    E  E  E    E  E   
D||----------------------------------------------|
A||----------------------------------------------|
F||----------------------------------------------|
C||----------------------------------------------|
G||-----------13p--12-----12p--10-----8h--10-----|
C||--0--0--0-----------0-----------0-------------|


   |----3---|  |----3---|   |---3--|   |----3---|   
   E    E   E  E    E   E   E   E  E   E    E   E   
---------------------------------------------------|
---------------------------------------------------|
--14p--10--------------10--12--10--9--14p--10------|
-----------12--7h--12--------------------------12--|
---------------------------------------------------|
---------------------------------------------------|


  |--3--|   |---3---|   |---3---|   |---3--|   
  E  E  E   E    E  E   E    E  E   E  E   E   
----------------------------------------------|
----------------------------------------------|
--------------------------------7--10--9--10--|
----------------------------------------------|
-----------13p--12-----12p--10----------------|
--0--0--0-----------0-------------------------|


  |--3--|  |--3--|  |---3--|  |--3--|   
  E  E  E  E  E  E  E   E  E  E  E  E   
---------------------------------------|
---------------------------------------|
---------------------------------------|
--7--8--7--5--7--5--8--10--8--7--8--7--|
---------------------------------------|
---------------------------------------|


  |--3--|   |---3---|   |---3---|  |---3---|   
  E  E  E   E    E  E   E    E  E  E    E  E   
----------------------------------------------|
----------------------------------------------|
----------------------------------------------|
----------------------------------------------|
-----------13p--12-----12p--10-----8h--10-----|
--0--0--0-----------0-----------0-------------|


   |----3---|  |----3---|   |---3--|   |----3---|   
   E    E   E  E    E   E   E   E  E   E    E   E   
---------------------------------------------------|
---------------------------------------------------|
--14p--10--------------10--12--10--9--14p--10------|
-----------12--7h--12--------------------------12--|
---------------------------------------------------|
---------------------------------------------------|


  |--3--|   |---3---|   |---3---|   |---3--|   
  E  E  E   E    E  E   E    E  E   E  E   E   
----------------------------------------------|
----------------------------------------------|
--------------------------------7--10--9--10--|
----------------------------------------------|
-----------13p--12-----12p--10----------------|
--0--0--0-----------0-------------------------|


  |--3--|  |--3--|  |---3--|  |--3--|     |--3--|  |--3--|  |--3--|        
  E  E  E  E  E  E  E   E  E  E  E  E     E  E  E  E  E  E  E  E  E  Q     
---------------------------------------|----------------------------------|
---------------------------------------|----------------------------------|
---------------------------------------|----------------------------------|
--7--8--7--5--7--5--8--10--8--7--8--7--|----------------------------------|
---------------------------------------|--5--8--7--8--7--5----------------|
---------------------------------------|--------------------0--0--0-------|


   S  S   S  S   S  S   S  S   S  S   S  S   S  S   S  S  
---------------------------------------------------------|
---------------------------------------------------------|
---------------------------------------------------------|
---------------------------------------------------------|
--12p-8h-12p-8h-12p-8h-12p-8h-12p-8h-12p-8h-12p-8h-12p-8-|
---------------------------------------------------------|


  S  S  S  S  S  S  S  S  S   S   E   S   S  E   
------------------------------------------------|
------------------------------------------------|
------------------------------------------------|
------------------------------------------------|
--8p-5h-8p-5h-8p-5h-8p-5-13p-12p-10--12p-10p-8--|
------------------------------------------------|


                                                         |---3---|   
    S S S S S S Q    E  S E  S    S   S  E  E  E  E  E   E   E   E   
|------------------------------|------------------------------------|
|------------------------------|------------------------------------|
|*-----------------------------|------------------------------------|
|*--------------2----3--3------|------------------7--8--10p--8p--7--|
|---------------5----5--5------|--8h-12p-8--5--8--------------------|
|---0-0-0-0-0-0----------------|------------------------------------|


  S S S S S S Q    E  S E  S    S S S  S  E  S S  S  E  S  S  E  S  
-----------------------------|-------------------------------------|
-----------------------------|-------------------------------------|
-----------------------------|-------------------------------------|
--------------2----0--3------|--0-0-5p-3p-0--0-8p-7p-5--7p-5p-3----|
--------------5----5--5------|-------------------------------------|
--0-0-0-0-0-0----------------|-------------------------------------|


  S S S S S S Q    E  S E  S    S   S  E  E  E  E  S   S E  E   
-----------------------------|---------------------------8-----|
-----------------------------|---------------------------------|
-----------------------------|---------------------7h-10-------|
--------------2----3--3------|------------------7--------------|
--------------5----5--5------|--8h-12p-8--5--8-----------------|
--0-0-0-0-0-0----------------|---------------------------------|


  S S S S S S Q    E  S E  S    E  S S S S S S  S  S  S  S S  S E   
-----------------------------|-------------------------------------|
-----------------------------|-------------------------------------|
-----------------------------|-------------------------------------|
--------------2----0--3------|-----0-0-8-7-0-0-10p-7-12-10-7-10----|
--------------5----5--5------|-------------------------------------|
--0-0-0-0-0-0----------------|-------------------------------------|


  S S S S S S Q    E  E  S S    E  S S E  S S E  S S S  S  S S  
-----------------------------|---------------------------------|
-----------------------------|---------------------------------|
-----------------------------|---------------------------------|
--------------2----3--3------|--7------8------7------5h-7p-5-3-|
--------------5----5--5------|---------------------------------|
--0-0-0-0-0-0------------0-0-|-----0-0----0-0----0-0-----------|


                          PH     
  S S S S S S  Q     E    Q      
--------------------------------|
--------------------------------|
--------------------------------|
---------------2-----3--<>2~----|
---------------3----------------|
--3-3-3-3-3-3-(2)---------------|


  S S  S   S   S   S S S  S   S   E   S   S  E     S S S S S S Q    E  E  S S  
------------------------------------------------|-----------------------------|
------------------------------------------------|-----------------------------|
------------------------------------------------|-----------------------------|
------------------------------------------------|--------------2----3--3------|
------13p-12h-13p-12-----13p-12p-10--12p-10p-8--|--------------5----5--5------|
--0-0----------------0-0------------------------|--0-0-0-0-0-0------------0-0-|


                                                            PH     
  E  S S E  S S E  S S S  S  S S    S S S S S S  Q     E    Q      
---------------------------------|--------------------------------|
---------------------------------|--------------------------------|
---------------------------------|--------------------------------|
--7------8------7------5h-7p-5-3-|---------------2-----3--<>2~----|
---------------------------------|---------------3----------------|
-----0-0----0-0----0-0-----------|--3-3-3-3-3-3-(2)---------------|


  S S  S   S   S   S S S  S Q    E  S     E   E   E   E   E   E   Q     
--------------------------------------|--------------------------------|
--------------------------------------|--------------------------------|
--------------------------------------|--14--14--14--14--14--15--12----|
--------------------------------------|--------------------------------|
------13p-12h-13p-12-----10-----------|--------------------------------|
--0-0----------------0-0--------------|--------------------------------|


   E   E   E   E   E   E   E   E      E   E   E   E   E   Q.      
----------------------------------|------------------------------|
----------------------------------|------------------------------|
--12--12--12--12--12--12--12--17--|--15--14--15--14--12--10------|
----------------------------------|------------------------------|
----------------------------------|------------------------------|
----------------------------------|------------------------------|


   E   E   E   E   E   E   Q        E   E   E   E   E   E   E   E   
--------------------------------|----------------------------------|
--------------------------------|--------------15--17--18----------|
--14--14--14--14--14--15--12----|--------------------------14--15--|
--------------------------------|--14--15--17----------------------|
--------------------------------|----------------------------------|
--------------------------------|----------------------------------|


   |---3---|   |---3---|   |----3---|   |----3---|   
   E   E   E   E   E   E   E   E    E   E   E    E   
------15--17--18--17--13---------------13--17p--13--|
--------------------------15------------------------|
--17--------------------------14h--15---------------|
----------------------------------------------------|
----------------------------------------------------|
----------------------------------------------------|


   |----3---|   |---3---|   |---3---|   |---3---|                          
   E   E    E   E   E   E   E   E   E   E   E   E      H.            Q     
---------------------------------------------------|----------------------|
--15-----------18--------------------------10--10--|--15------------10----|
------14h--15------14--14--14--14--15--17----------|----------------------|
---------------------------------------------------|----------------------|
---------------------------------------------------|----------------------|
---------------------------------------------------|----------------------|


   W                    S  S  S  S  S  S  S  S  S  S  Q       E   
--------------------|--------------------------------------------|
---L----------------|--10-10-17-10-10-10-15-10-10-10-17br----17--|
--------------------|--------------------------------------------|
--------------------|--------------------------------------------|
--------------------|--------------------------------------------|
--------------------|--------------------------------------------|


   E   E   E   E   E   E   E   E      W                 
-----------------------------------|-------------------|
--15-------------------------------|-------------------|
------17---------------------------|-------------------|
----------17--14------12--14--15~--|--L----------------|
------------------15---------------|-------------------|
-----------------------------------|-------------------|


  S   S   S  S  S  S  S  S  E   Q      E      Q     S  S  S  S  H            
------------------------------------------|--------------------------------||
---------------------------15--17S----20--|--------------------------------||
------------------14-15-17----------------|--17----15-14----15~-L~--------*||
----/14-/14-15-17-------------------------|--------------17---------------*||
------------------------------------------|--------------------------------||
------------------------------------------|--------------------------------||


    E    E    E    E    E    E    E    E    
-------------------------------------------|
-------------------------------------------|
*------------------------------------------|
*---2----2----2----2----3----3----3----3---|
----5----5----5----5----5----5----5----5---|
---(0)--(0)--(0)--(0)--(0)--(0)--(0)--(0)--|


   E    E    E    E    E    E    E    E    
------------------------------------------|
------------------------------------------|
------------------------------------------|
---3----3----3----3----3----3----3----3---|
---5----5----5----5----5----5----5----5---|
--(0)--(0)--(0)--(0)--(0)--(0)--(0)--(0)--|


   E    E    E    E    E    E    E    E    
------------------------------------------|
------------------------------------------|
------------------------------------------|
---8----8----8----7----7----7----7----7---|
---5----5----5----5----5----5----5----5---|
--(5)--(5)--(5)--(5)--(5)--(5)--(5)--(5)--|


   E    E    E    E   S S S S S S E        S S E  E  S S E  E  E  E   
--------------------------------------||-----------------------------|
--------------------------------------||-----------------------------|
----------------------7-5-3-0-2-3-5--*||*----------------------------|
---7----7----7----7------------------*||*----------------------------|
---5----5----5----5-------------------||-------5--7------5--7--8--7--|
--(5)--(5)--(5)--(5)------------------||---0-0-------0-0-------------|


  S S E  E  S S  S  S  S  S S S  E      E  S S E  E  S S E  E   E   
-------------------------------------|-----------------------------|
-------------------------------------|-----------------------------|
-------------------------------------|-----------------------------|
-------------------------------------|-----------------------------|
------7--8------12p-8-12p-8-----10h--|--7------7--8------7--8--10--|
--0-0-------0-0-------------0-0------|-----0-0-------0-0-----------|


  E  S S E   E  S S  S  S  S   S   S S  4x  S S S Q    S S S S S S E  S  
----------------------------------------||------------------------------|
----------------------------------------||------------------------------|
---------------------------------------*||------------------------------|
---------------------------------------*||-------------------------8----|
--7------8--10------13-12-10h-12p-10-8--||-------------------------5----|
-----0-0--------0-0---------------------||--0-0-0-0----0-0-0-0-0-0----0-|


  S S Q    S S S S S S E  S S    S Q    S S S S S S E  S S  S   
------------------------------|--------------------------------|
------------------------------|--------------------------------|
------------------------------|--------------------------------|
------------------------------|--------------------------------|
-----------------------7------|---------------------5------10h-|
--0-0-0----0-0-0-0-0-0----0-0-|--0-0----0-0-0-0-0-0----0-0-----|


  S S  S S S S  S S  S S S Q    S    S S S Q    S S S S S S E  S  
----------------------------------|------------------------------|
----------------------------------|------------------------------|
----------------------------------|------------------------------|
----------------------------------|-------------------------8----|
--5-8p-5-----8p-4-7p-4------------|-------------------------5----|
---------0-0-----------0-0-3----L-|--0-0-0-0----0-0-0-0-0-0----0-|


  S S Q    S S S S S S E  S S    S Q    S S S S S S E  S S  S   
------------------------------|--------------------------------|
------------------------------|--------------------------------|
------------------------------|--------------------------------|
------------------------------|--------------------------------|
-----------------------7------|---------------------5------10h-|
--0-0-0----0-0-0-0-0-0----0-0-|--0-0----0-0-0-0-0-0----0-0-----|


  S S  S S S S  S S  S S  S S S S E     S S S Q    S S S S S S E  S  
-------------------------------------|------------------------------|
-------------------------------------|------------------------------|
-------------------------------------|------------------------------|
-------------------------------------|-------------------------8----|
--5-8p-5-----8p-4-7p-4-5p-4----------|-------------------------5----|
---------0-0----------------0-0-0-0--|--0-0-0-0----0-0-0-0-0-0----0-|


  S S Q    S S S S S S E  S S    S Q    S S S S S S E  S S  S   
------------------------------|--------------------------------|
------------------------------|--------------------------------|
------------------------------|--------------------------------|
------------------------------|--------------------------------|
-----------------------7------|---------------------5------10h-|
--0-0-0----0-0-0-0-0-0----0-0-|--0-0----0-0-0-0-0-0----0-0-----|


  S S  S S S S  S S  S S S Q    S    S S S Q    S S S S S S E  S  
----------------------------------|------------------------------|
----------------------------------|------------------------------|
----------------------------------|------------------------------|
----------------------------------|-------------------------8----|
--5-8p-5-----8p-4-7p-4------------|-------------------------5----|
---------0-0-----------0-0-3----L-|--0-0-0-0----0-0-0-0-0-0----0-|


  S S Q    S S S S S S E  S S    S Q    S S S S S S E  S S  S   
------------------------------|--------------------------------|
------------------------------|--------------------------------|
------------------------------|--------------------------------|
------------------------------|--------------------------------|
-----------------------7------|---------------------5------10h-|
--0-0-0----0-0-0-0-0-0----0-0-|--0-0----0-0-0-0-0-0----0-0-----|


  S S  S S S S  S S  S S  S S S S S S  
--------------------------------------|
--------------------------------------|
--------------------------------------|
----------------------------0-------0-|
--5-8p-5-----8p-4-7p-4-5p-4-0-------0-|
---------0-0----------------0-0-0-0-0-|


  S  S S  S S  S S  S S  S S  S S  S S  S  S  S  S  S S  S  S  S  S  S  S  S S  
--------------------------------------------------------------------------------
--------------------------------------------------------------------------------
--------------------------------------------------------------------------------
--8p-5-8p-5-7p-5-8p-5-8p-5-8p-5-7p-5-8p-5-10p-7-10p-7-8p-7-10p-7-10p-7-10p-7-8p-
--------------------------------------------------------------------------------
--------------------------------------------------------------------------------


  S  S S  S S  S S  S S  S S  S S  S S  S  S  S  S  S S  S  S  S S  S  S  S  S  
--------------------------------------------------------------------------------
--------------------------------------------------------------------------------
------------------------------------------10p-7-10p-7-9p-7-10p-7-9p-7-10p-7-12p-
--5p-2-5p-2-3p-2-5p-2-5p-2-5p-2-3p-2-5p-2---------------------------------------
--------------------------------------------------------------------------------
--------------------------------------------------------------------------------


  S  S S  S S  S S  S S  S S  S S  S S  S  S  S  S  S S  S  S  S  S  S  S  S S  
--------------------------------------------------------------------------------
--------------------------------------------------------------------------------
--------------------------------------------------------------------------------
--8p-5-8p-5-7p-5-8p-5-8p-5-8p-5-7p-5-8p-5-10p-7-10p-7-8p-7-10p-7-10p-7-10p-7-8p-
--------------------------------------------------------------------------------
--------------------------------------------------------------------------------


  S  S S  S S  S S  S S  S S  S S  S S  S S  S S  S S  S S  S S  S S  S S  S S  
--------------------------------------------------------------------------------
--------------------------------------------------------------------------------
--------------------------------------------------------------------------------
--5p-2-5p-2-3p-2-5p-2-5p-2-5p-2-3p-2-5p-2-7p-3-7p-3-5p-3-7p-3-7p-3-7p-3-5p-3-7p-
--------------------------------------------------------------------------------
--------------------------------------------------------------------------------


  S  S S  S S  S S  S S  S S  S S  S S  S  S  S  S  S S  S  S  S  S  S  S  S S  
--------------------------------------------------------------------------------
--------------------------------------------------------------------------------
--------------------------------------------------------------------------------
--8p-5-8p-5-7p-5-8p-5-8p-5-8p-5-7p-5-8p-5-10p-7-10p-7-8p-7-10p-7-10p-7-10p-7-8p-
--------------------------------------------------------------------------------
--------------------------------------------------------------------------------


  S  S S  S S  S S  S S  S S  S S  S S  S S  S S  S S  S S  S S S S S S S S S  
------------------------------------------------------------------------------|
------------------------------------------------------------------------------|
------------------------------------------------------------------------------|
--5p-2-5p-2-3p-2-5p-2-5p-2-5p-2-3p-2-5p-2-7p-3-7p-3-5p-3-7p-3-2-3-5-3-5-7-5-7-|
------------------------------------------------------------------------------|
------------------------------------------------------------------------------|


  S  S S  S S  S S  S S  S S  S S  S S  S  S  S  S  S S  S  S  S  S  S  S  S S  
--------------------------------------------------------------------------------
--------------------------------------------------------------------------------
--------------------------------------------------------------------------------
--8p-5-8p-5-7p-5-8p-5-8p-5-8p-5-7p-5-8p-5-10p-7-10p-7-8p-7-10p-7-10p-7-10p-7-8p-
--------------------------------------------------------------------------------
--------------------------------------------------------------------------------


  S  S S  S S  S S  S S  S S  S S  S S  S S S S S S S S S  S S  S  S  
---------------------------------------------------------------------|
---------------------------------------------------------------------|
---------------------------------------------------------------------|
--5p-2-5p-2-3p-2-5p-2-5p-2-5p-2-3p-2-5p-2-3-7-5-5-7-8-7-8-10-8-10-12-|
---------------------------------------------------------------------|
---------------------------------------------------------------------|


     |---3---|   |---3---|   |----3---|   |---3---|   |---3---|   |---3---|   |-
     E   E   E   E   E   E   E    E   E   E   E   E   E   E   E   E   E   E   E 
|-----------------------17--22p--17--------------------------------------17--22p
|-------------------18---------------18------------------------------18---------
|*--------------19-----------------------19----------------------19-------------
|*----------19-------------------------------19--------------19-----------------
|---17--20---------------------------------------20--17--20---------------------
|-------------------------------------------------------------------------------


   |---3---|   |---3---|   |---3---|   |---3---|   |---3---|   |---3---|   |---3
   E   E   E   E   E   E   E   E   E   E   E   E   E   E   E   E   E   E   E   E
----------------------17--21--17--------------------------------------17--21--17
------------------17--------------17------------------------------17------------
--------------18----------------------18----------------------18----------------
----------19------------------------------19--------------19--------------------
--16--19--------------------------------------19--16--19------------------------
--------------------------------------------------------------------------------


   |---3---|   |---3---|   |---3---|   |---3---|   |---3---|   |---3---|   |---3
   E   E   E   E   E   E   E   E   E   E   E   E   E   E   E   E   E   E   E   E
----------------------15--20--15--------------------------------------15--20--15
------------------17--------------17------------------------------17------------
--------------17----------------------17----------------------17----------------
----------17------------------------------17--------------17--------------------
--15--19--------------------------------------19--15--19------------------------
--------------------------------------------------------------------------------


   |---3---|   |---3---|   |---3---|   |---3---|   |---3---|   |---3---|   |---3
   E   E   E   E   E   E   E   E   E   E   E   E   E   E   E   E   E   E   E   E
----------------------13--15--17--18--17--18--20----------------------15--20--18
------------------15----------------------------------------------17------------
--------------15----------------------------------------------17----------------
----------15----------------------------------------------17--------------------
--13--17------------------------------------------15--19------------------------
--------------------------------------------------------------------------------


   |---3---|   |---3---|   |---3---|   |---3---|                           --- 
   E   E   E   E   E   E   E   E   E   E   E   E      W                        
----------------------17--22--17------------------|---------------------|-----|
------------------18--------------18--------------|---------------------|-----|
--------------19----------------------19----------|---------------------|-----|
----------19------------------------------19------|---------------------|-----|
--17--20--------------------------------------20--|--17~----------------|-----|
--------------------------------------------------|---------------------|-----|


  ---   ---   ---   ---   ---   ---   ---  
-----|-----|-----|-----|-----|-----|-----||
-----|-----|-----|-----|-----|-----|-----||
-----|-----|-----|-----|-----|-----|-----||
-----|-----|-----|-----|-----|-----|-----||
-----|-----|-----|-----|-----|-----|-----||
-----|-----|-----|-----|-----|-----|-----||




Duration Legend
---------------
W - whole
H - half
Q - quarter
E - 8th
S - 16th
T - 32nd
X - 64th
. - note dotted
|-n-|  - n-tuplets


Tablature Legend
----------------
L - tied note
x - dead note
g - grace note
(n) - ghost note
> - accentuded note
NH - natural harmonic
AH - artificial harmonic
TH - tapped harmonic
SH - semi harmonic
PH - pitch harmonic
h - hammer on
p - pull off
b - bend
br - bendRelease
pb - preBend
pbr - preBendRelease
brb - bendReleaseBend
\n/ - tremolo bar dip
\n - tremolo bar dive
-/n - tremolo bar Release up
/n\ - tremolo bar inverted dip
/n - tremolo bar return
-\n - tremolo bar Release down
S - shift slide
s - legato slide
/ -  slide into from below or out of upwards
\ -  slide into from above or out of downwards
~ - vibrato
W - wide vibrato
tr - trill
TP - tremolo picking
T - tapping
S - slap
P - pop
< - fade in
^ - brush up
v - brush down
comments
We did not receive enough feedback on this tab! Please rate:
print report bad tab
1 2 3 4 5
1 comment total.
0 reply
faceships9 wrote on July 25 2012, 04:48 pm

really good tab but only one guitar part?

I want to post or [tab]
guest
You may want to rate the tab now too:
select rating
Please do not post tabs as comments. Select "correction" instead!