Oops, an error
Loading. Please wait.

Polaris Bass Tab

3,569 views 6 this week
1 commentread comment
1 2 3 4 5
excellent!
x 4
Autoscroll
+/-
esc
set tempo
stop
Contributor
Difficulty
advanced
WARNING: You are trying to view
                                    content from Ultimate-Guitar.com
                                    in an unauthorized application,
                                    which is prohibited.

                                    Please use an official Ultimate
                                    Guitar Tabs application for iPhone,
                                    iPad or Android to access legitimate
                                    chords, guitar, bass, and drum tabs
                                    from Ultimate-Guitar.com database.

                                    Type "ultimate guitar tabs" in Apple
                                    App Store's or Android Market's
                                    search to find the application.
Tabbed by:Daniel Corrigan
Email:d_snowboard@hotmail.com
I'm surprised theres not tabs for this band,for
their skill they don't get much recognition. 
Any way heres the tab.  
Into-0:00
G----------|
D----------|
A-2:-------|
E-4:-x-12\-|
B----------|
    e q.
G------------------------------|-----------------------|
D------------------------------|-------3-2---2-----[5]-|
A-6:--------0-2-3--------5-3-2-|-----------5---5-3-----|
E-4:--1-1-1--------3-3-3-------|-5-5-5-----------------|
B------------------------------|-----------------------|
      e e e e e e  e e e e e e   e e e e e e e e e  q
G------------------------------|-------------------------|
D------------------------------|-------2-2-2-3-3-3-------|
A-----------0-2-3--------5-3-2-|-------------------5-5-5-|
E-----1-1-1---------3-3-3------|-5-5-5-------------------|
B------------------------------|-------------------------|
      e e e e e e   e e ee e e   e e e e e e e e e e e e
G------------------------------|-------5-44h-5-4---7h9---|
D------------------------------|---2-5-----------5-------| 
A-----------0-2-3--------5-3-2-|-3-----------------------|
E-----1-1-1---------3-3-3------|-------------------------|
B------------------------------|-------------------------|
      e e e e e e  e e e e e e   e e e q xx  e e e x e.
G------------------------------|-------------------------|
D------------------------------|-------2-2-2-3-3-3-------|
A-----------0-2-3--------5-3-2-|-------------------5-----|
E-----1-1-1---------3-3-3------|-5-5-5-------------------|
B------------------------------|-------------------------|
      e e e e e e   e e ee e e   e e e e e e e e e e. r

G----------|
D----------|
A-2:-------|
E-4:-x-12\-|
B----------|
    e q.




Verse-0:14
G------------------------------|
D-----------3-2---5-2---3-2----|
A-:---0-0-0-----3-----5-----3--|
E------------------------------|
B------------------------------|
      E e e e e e e e e e e e  
G-----------------------|
D-----------------------|
A-------3---5---3---[2]-|
E-1-1-1---1---1---1-----|
B-----------------------|
  E e e e e e e e e  q.
G------------------------------|
D-----------3-2---5-2---3-2----|
A-----0-0-0-----3-----5-----3--|
E------------------------------|
B------------------------------|
      E e e e e e e e e e e e 
G--------------------------|
D--------------------------|
A-------3p2h3-------5h3p 5-:|
E-1-1-1-------3-3-3--------|
B--------------------------|
  E e e e e e e e e e e  e


Bridge-0:29
G----------------------------|
D-------7-9-10--------7-9-10-|
A—0-0-0---------0-0-0--------|
E----------------------------|
B----------------------------|
  E e e e e e   e e e e e e 

G-------------------------|
D-----7-------9-5---7-5---|
A-9-5---9-5-7-----7-----7-|
E-------------------------|
B-------------------------|
  E e e e e e e e e e e e

G----------------------------|
D-------7-9-10--------7-9-10-|
A—0-0-0---------0-0-0--------|
E----------------------------|
B----------------------------|
  E e e e e e   e e e e e e 
G--------9-----------------------|
D------9--------12-10-9-14-12-10-|
A-7-10-----10-7------------------|
E--------------------------------|
B--------------------------------|
  E e  e e e  e  e  e e  e  e  e 


G----------------------------|
D-------7-9-10--------7-9-10-|
A—0-0-0---------0-0-0--------|
E----------------------------|
B----------------------------|
  E e e e e e   e e e e e e 

G-------------------------|
D-----7-------9-5---7-5---|
A-9-5---9-5-7-----7-----7-|
E-------------------------|
B-------------------------|
  E e e e e e e e e e e e

G------------------------|
D-------9-10—14-12-10-9--|
A—7-10-------------------|
E------------------------|
B------------------------|
  E  e  e q. e  e  e  q.

Chorus-0:43
G--------------------|-----------------|
D--------------------|-----------------|
A-0—-0-0-x—-0—-0-0-x-|-----------------|
E--------------------|-1—-1-1-x-1--1-1-|
B--------------------|-----------------|
  q. e e e  q. e e e   q. e e e q. e e

G------------------------|
D------------------------|
A------------------------|
E-3-3-3-3--3-3-3-3-3-3-x-|
B------------------------|
  E e e q  e e e e e e e 




G------------|
D------------|
A-----r------|
E------------|
B------------|
      o.

G-------------------------|-------------------------|
D-------------------------|-------------------------|
A-0-0-0-0-x-x-0-0-0-0-x-x-|-------------------------|
E-------------------------|-1-1-1-1-x-x-1-1-1-1-x-x-|
B-------------------------|-------------------------|
  E e e e e e e e e e e e   e e e e e e e e e e e e
G-------------------------|-------------------------|
D-------------------------|-------------------------|
A-------------------------|-------------------------|
E-3-3-3-3-x-x-3-3-3-3-x-x-|-2-----2-----3-----5-----|
B-------------------------|---0-0---0-0---1-1---3-3-|
  E e e e e e e e e e e e   e e e e e e e e e e e e


G--------------------|-----------------|
D--------------------|-----------------|
A-0—-0-0-0—-0—-0-0-0-|-----------------|
E--------------------|-1—-1-1-0-1--1-1-|
B--------------------|-----------------|
  q. e e e  q. e e e   q. e e e q. e e

G------------------------|
D------------------------|
A------------------------|
E-3-3-3-3--3-3-3-3-3-3-x-|
B------------------------|
  E e e q  e e e e e e e

G------------|
D------------|
A-----r------|
E------------|
B------------|
      o.






G--------------------|-----------------|
D--------------------|-----------------|
A-0—-0-0-0—-0—-0-0-0-|-----------------|
E--------------------|-1—-1-1-0-1--1-1-|
B--------------------|-----------------|
  q. e e e  q. e e e   q. e e e q. e e

G------------------------|---------------------------|
D------------------------|---------------------------|
A------------------------|---------------------------|
E-3-3-3-3--3-3-3-3-3-3-0-|---------------------------|
B------------------------|-1-1-1-1-1-1-1-1-1-1-1-1-1-|
  e e e q  e e e e e e e   e e e e e e e e e e e e e

G------------|
D------------|
A-----r------|
E------------|
B------------|
      o.

Verse-1:12
G------------------------------|
D-----------3-2---5-2---3-2----|
A-:---0-0-0-----3-----5-----3--|
E------------------------------|
B------------------------------|
      e e e e e e e e e e e e  
G-----------------------|
D-----------------------|
A-------3---5---3---[2]-|
E-1-1-1---1---1---1-----|
B-----------------------|
  e e e e e e e e e  q.
G------------------------------|
D-----------3-2---5-2---3-2----|
A-----0-0-0-----3-----5-----3--|
E------------------------------|
B------------------------------|
      e e e e e e e e e e e e 
G--------------------------|
D--------------------------|
A-------3p2h3-------5h3p 5-:|
E-1-1-1-------3-3-3--------|
B--------------------------|
  e e e e e e e e e e e  e
Bridge-1:26
G----------------------------|
D-------7-9-10--------7-9-10-|
A—0-0-0---------0-0-0--------|
E----------------------------|
B----------------------------|
  e e e e e e   e e e e e e 

G-------------------------|
D-----7-------9-5---7-5---|
A-9-5---9-5-7-----7-----7-|
E-------------------------|
B-------------------------|
  e e e e e e e e e e e e

G----------------------------|
D-------7-9-10--------7-9-10-|
A—0-0-0---------0-0-0--------|
E----------------------------|
B----------------------------|
  e e e e e e   e e e e e e 
G--------9-----------------------|
D------9--------12-10-9-14-12-10-|
A-7-10-----10-7------------------|
E--------------------------------|
B--------------------------------|
  E e  e e e  e  e  e e  e  e  e 


G----------------------------|
D-------7-9-10--------7-9-10-|
A—0-0-0---------0-0-0--------|
E----------------------------|
B----------------------------|
  E e e e e e   e e e e e e 

G-------------------------|
D-----7-------9-5---7-5---|
A-9-5---9-5-7-----7-----7-|
E-------------------------|
B-------------------------|
  e e e e e e e e e e e e





G------------------------|
D-------9-10—14-12-10-9--|
A—7-10-------------------|
E------------------------|
B------------------------|
  e  e  e q. e  e  e  q.


Chorus-1 :40
G--------------------|-----------------|
D--------------------|-----------------|
A-0—-0-0-x—-0—-0-0-x-|-----------------|
E--------------------|-1—-1-1-x-1--1-1-|
B--------------------|-----------------|
  q. e e e  q. e e e   q. e e e q. e e

G------------------------|
D------------------------|
A------------------------|
E-3-3-3-3--3-3-3-3-3-3-x-|
B------------------------|
  e e e q  e e e e e e e 




G------------|
D------------|
A-----r------|
E------------|
B------------|
      o.

G-------------------------|-------------------------|
D-------------------------|-------------------------|
A-0-0-0-0-x-x-0-0-0-0-x-x-|-------------------------|
E-------------------------|-1-1-1-1-x-x-1-1-1-1-x-x-|
B-------------------------|-------------------------|
  e e e e e e e e e e e e   e e e e e e e e e e e e
G-------------------------|-------------------------|
D-------------------------|-------------------------|
A-------------------------|-------------------------|
E-3-3-3-3-x-x-3-3-3-3-x-x-|-2-----2-----3-----5-----|
B-------------------------|---0-0---0-0---1-1---3-3-|
  e e e e e e e e e e e e   e e e e e e e e e e e e





G--------------------|-----------------|
D--------------------|-----------------|
A-0—-0-0-0—-0—-0-0-0-|-----------------|
E--------------------|-1—-1-1-1-1--1-1-|
B--------------------|-----------------|
  q. e e e  q. e e e   q. e e e q. e e

G------------------------|
D------------------------|
A------------------------|
E-3-3-3-3--3-3-3-3-3-3-x-|
B------------------------|
  e e e q  e e e e e e e

G------------|
D------------|
A-----r------|
E------------|
B------------|
      o.






G--------------------|-----------------|
D--------------------|-----------------|
A-0—-0-0-0—-0—-0-0-0-|-----------------|
E--------------------|-1—-1-1-0-1--1-1-|
B--------------------|-----------------|
  q. e e e  q. e e e   q. e e e q. e e

G------------------------|---------------------------|
D------------------------|---------------------------|
A------------------------|---------------------------|
E-3-3-3-3--3-3-3-3-3-3-0-|---------------------------|
B------------------------|-1-1-1-1-1-1-1-1-1-1-1-1-1-|
  e e e q  e e e e e e e





G------------|
D------------|
A-----r------|
E------------|
B------------|
      o.

Bridge2
G-------------------------|-------------------|
D-------------------------|-------------------|
A-------------------------|-------------------|
E-------------------------|-7-7-7-7-7-----(7)-|
B-10-10-10-10-10-----(10)-|-------------------|
  e  e  e  e  o_______e     e e e e o______e

G-------------------|--------------------------|
D-------------------|--------------------------|
A-------------------|---------------7-7-7-7----|
E-8-8-8-8-8-----(8)-|-10-10-10-10--------------|
B-------------------|--------------------------|
 e e e e o______e     e  e  e  q.   e e e q.

G-------------------------|-------------------|
D-------------------------|-------------------|
A-------------------------|-------------------|
E-------------------------|-7-7-7-7-7-----(7)-|
B-10-10-10-10-10-----(10)-|-------------------|
  e  e  e  e  o_______e     e e e e o______e

G-------------------|
D-------------------|
A-------------------|
E-8-8-8-8-r---------|
B-------------------|
  e e e e h 

G-------------------------|-------------------|
D-------------------------|-------------------|
A-------------------------|-------------------|
E-------------------------|-7-7-7-7-7-----(7)-|
B-10-10-10-10-10-----(10)-|-------------------|
  e  e  e  e  o_______e     e e e e o______e

G--------------------------|---------------------|
D--------------------------|---------------------|
A-7-----7-----7-----7------|-5-----5-----5-----5-|
E---5-5---5-5---5-5---5-5--|---7-7---7-7---7-7---|
B--------------------------|---------------------|
  e e e e e e e e e e e e    e e e e e e e e e e 

G----------------------|
D----------------------|
A-7-----7-----7--------|
E---8-8---8-8---r----r-|
B----------------------|
  e e e e e e e h    e

G-------------------------------|
D-------------------------------|
A-12-12-------12-12-7-7-7-7-7-7-|
E-------10-10-------------------|
B-------------------------------|
  e  e  e  e  e  e  e e e e e e 

G--------------------------|---------------------|
D--------------------------|---------------------|
A-7-----7-----7-----7------|-5-----5-----5-----5-|
E---5-5---5-5---5-5---5-5--|---7-7---7-7---7-7---|
B--------------------------|---------------------|
  e e e e e e e e e e e e    e e e e e e e e e e 

G-------------------------|
D-------------------------|
A-7-----7-----7-----7-----|
E---8-8---8-8---8-8---8-8-|
B-------------------------|
  e e e e e e e e e e e e

G--------------------------|---------------------|
D--------------------------|---------------------|
A-7-----7-----7-----7------|-5-----5-----5-----5-|
E---5-5---5-5---5-5---5-5--|---7-7---7-7---7-7---|
B--------------------------|---------------------|
  e e e e e e e e e e e e    e e e e e e e e e e 

G----------------------|
D----------------------|
A-7-----7-----7--------|
E---8-8---8-8---r----r-|
B----------------------|
  e e e e e e e h    e

G-------------------------------|
D-------------------------------|
A-12-12-------12-12-7-7-7-7-7-7-|
E-------10-10-------------------|
B-------------------------------|
  e  e  e  e  e  e  e e e e e e 

G--------------------------|---------------------|
D--------------------------|---------------------|
A-7-----7-----7-----7------|-5-----5-----5-----5-|
E---5-5---5-5---5-5---5-5--|---7-7---7-7---7-7---|
B--------------------------|---------------------|
  e e e e e e e e e e e e    e e e e e e e e e e 

G--------------|----------------|------------|
D--------------|----------------|------------|
A-2------------|-(2)------------|-2----------|
E-0------------|-(0)------------|-0-r--------|
B--------------|----------------|------------|
  o.______________o.              q h.

G------------|------------|
D------------|------------|
A-r----------|-r----------|
E------------|------------|
B------------|------------|
  o.           o.

G-0------------|--------------|--------------|--------------|
D--------------|-0------------|-1------------|-3------------|
A--------------|--------------|--------------|--------------|X4
E--------------|--------------|--------------|--------------|
B--------------|--------------|--------------|--------------|
  o.             o.             o.             o.

G---------------|-------2------|---------------|
D-------2---(2)-|--------------|---------------|
A----2----------|----3-----3---|------5----(5)-|
E-0-------------|-1------------|----5----------|
B---------------|--------------|-3-------------|
  q  q  q.___q    q  q  q  q.    q  q  q.___q  

G-------2---(2)-|
D----2----------|
A-0-------------|
E---------------|
B---------------|
  q  q  q.___q

G---------------|-------2------|---------------|
D-------2---(2)-|--------------|---------------|
A----2----------|----3-----3---|------5----(5)-|
E-0-------------|-1------------|----5----------|
B---------------|--------------|-3-------------|
  q  q  q.___q    q  q  q  q.    q  q  q.___q  


G-----------------|-----------------|-----------------|
D-----------------|-----------------|-----------------|
A-0-0-0-0-0-0-0-0-|-----------------|-----------------|
E-----------------|-0-0-0-0-0-0-0-0-|-1-1-1-1-1-1-1-1-|
B-----------------|-----------------|-----------------|
  q q q q q q q q   q q q q q q q q   q q q q q q q q

G-------------|
D-------------|
A-------------|
E-3-3-3---(3)-|
B-------------|

G-------2---(2)-|---------------|-------2------|
D----2----------|-------2---(2)-|--------------|
A-0-------------|----2----------|----3-----3---|
E---------------|-0-------------|-1------------|
B---------------|---------------|--------------|
  q  q  q.___q    q  q  q____q.   q  q  q  q

G-------------|
D-------------|
A-------------|
E-3-3-3-3-3-3-|
B-------------|
  q q q q q q

G------------------------|------------------|
D------------------------|------------------|
A-0-0-0-0-r--0-0-0-0-0-0-|-0-0-0------------|
E------------------------|-------1-r--------|
B------------------------|------------------|
  e e e e q  e e e e e e   e e e e o

G------------------------|-------------|
D------------------------|-------------|
A------------------------|-------------|
E-3-3-3-3-r--3-3-3-3-3-3-|-------------|
B------------------------|------r------|
  e e e e q  e e e e e e        o.

G-----------------------|-----------------------|
D-----------------------|-----------------------|
A-0-0-0-0---0-0-0-0-0-0-|-----------------------|
E-----------------------|-1-1-1-1---1-1-1-1-1-1-|
B-----------------------|-----------------------|
  e e e q.  e e e e e e   e e e q.  e e e e e e 

G----------------------|-------------------------|
D----------------------|-------------------------|
A----------------------|-2-----2-----3-----5-----|
E-3-3-3-3---3-3-3-3----|---0-0---0-0---1-1---3-3-|
B----------------------|-------------------------|
  e e e q.  e e e q.     e e e e e e e e e e e e

G-----------------------|-----------------------|
D-----------------------|-----------------------|
A-0-0-0-0---0-0-0-0-0-0-|-----------------------|
E-----------------------|-1-1-1-1---1-1-1-1-1-1-|
B-----------------------|-----------------------|
  e e e q.  e e e e e e   e e e q.  e e e e e e 

G----------------------|-------5-4---7-5-4-9-7-5-|
D----------------------|-----5-----5-------------|
A----------------------|---7---------------------|
E-3-3-3-3---3-3-3-3----|-3-----------------------|
B----------------------|-------------------------|
  e e e q.  e e e q.     e e e e e e e e e e e e 

G-----------------------|-----------------------|
D-----------------------|-----------------------|
A-0-0-0-0---0-0-0-0-0-0-|-----------------------|
E-----------------------|-1-1-1-1---1-1-1-1-1-1-|
B-----------------------|-----------------------|
  e e e q.  e e e e e e   e e e q.  e e e e e e 

G----------------------|-------------------------|
D----------------------|-------------------------|
A----------------------|-------------------------|
E-3-3-3-3---3-3-3-3----|-1-1-1-1-1-1-3-3-3-3-3-3-|
B----------------------|-------------------------|
  e e e q.  e e e q.     e e e e e e e e e e e e 

G-------------------|
D-------------------|
A-------------------|
E-5-5-5-5-5-5-5--r-r|
B-------------------|
                 h_e


Symbol Legend:
6:
4:= time signature
[5]=artificial/pinch harmonic
h=hammer on
p=pull of
|=bar line
:-5-:= repeat
x=dead note
(10)=ghost or tied note

Timing Legend:
o=whole
h=half
q=quarter
e=eigth
x=sixteenth
.=dotted note
r=rest
q_e= tie note
comments
print report bad tab
1 comment total.
0 reply
Nacaer wrote on May 29 2011, 07:18 am

great tab, but I think the frets you tabbed need to be played with an ADGCF tuning. At least all tabs for the guitar are DGCFAD and it sounds shitty if you play it in B standard.

Nonetheless 5 Stars

I want to post or [tab]
guest
You may want to rate the tab now too:
select rating
Please do not post tabs as comments. Select "correction" instead!