Oops, an error
Loading. Please wait.

Polaris Tab

ver1
ver1

Intro

Solo

Whole song

Interactive

More versions @911Tabs.com
20,784 views 12 this week
1 commentread comment
1 2 3 4 5
excellent!
x 9
Autoscroll
+/-
esc
set tempo
stop
Contributor
Hey! There's an official Ultimate Guitar app which is ideal
for learning songs when you're away from computer. Get the app
WARNING: You are trying to view
                                    content from Ultimate-Guitar.com
                                    in an unauthorized application,
                                    which is prohibited.

                                    Please use an official Ultimate
                                    Guitar Tabs application for iPhone,
                                    iPad or Android to access legitimate
                                    chords, guitar, bass, and drum tabs
                                    from Ultimate-Guitar.com database.

                                    Type "ultimate guitar tabs" in Apple
                                    App Store's or Android Market's
                                    search to find the application.
#----------------------------------PLEASE NOTE---------------------------------#
#This file is the author's own work and represents their interpretation of the #
#song. You may only use this file for private study, scholarship, or research. #
#------------------------------------------------------------------------------##

                                     POLARIS
                        As recorded by The Human Abstract
                         (From the 2006 Album NOCTURNE)

Transcribed by GuitarHero_JP

Gtr I (D G C F A D) - 'Guitar I'
Gtr II (D G C F A D) - 'Guitar II'
Gtr III (D G C F A D) - 'Lead Guitar'
Gtr IV (D G C F A D) - 'Acoustic I'
Gtr V (D G C F A D) - 'Acoustic II'

 Intro
  Q=208
 2/4       6/4
  Gtrs I, II
                                                         ~~~
  E  Q.     E E E E E E E E E E E E   E E E E E E E E E  Q.
|---------|-------------------------|-------------------------|
|---------|-------------------------|-------------------------|
|---------|-------------------------|-------------------------|
|---------|-------------------------|-------3-2-0-2-----[5]---|
|---------|-------0-2-3-------5-3-2-|-0-0-0---------5-3-------|
|-x-12\---|-1-1-1-------3-3-3-------|-------------------------|


                                  PM--------------|
  E E E E E E E E E E E E   E E E E E E E E E E E E
|-------------------------|-------------------------|
|-------------------------|-------------------------|
|-------------------------|-------------------------|
|-------------------------|-------2-2-2-3-3-3-0-0-0-|
|-------0-2-3-------5-3-2-|-0-0-0-------------------|
|-1-1-1-------3-3-3-------|-------------------------|


  Gtr I
                            PM--|
  E E E E E E E E E E E E   E E E Q  E a E E E a Q.
|-------------------------|--------------------------|
|-------------------------|--------------------3h5---|
|-------------------------|-------5--4-4h5-4---------|
|-------------------------|---2-5------------5-------|
|-------0-2-3-------5-3-2-|-3------------------------|
|-1-1-1-------3-3-3-------|--------------------------|
|
| Gtr II
|                           PM--|
| E E E E E E E E E E E E   E E E Q  E a E E E a Q.
|-------------------------|--------------------------|
|-------------------------|--------------------------|
|-------------------------|-------2--0-0h2-0---3h5---|
|-------------------------|-----2------------2-------|
|-------0-2-3-------5-3-2-|-0-3----------------------|
|-1-1-1-------3-3-3-------|--------------------------|


  Gtrs I, II
                                  PM----------|
  E E E E E E E E E E E E   E E E E E E E E E E. E.   H    E  Q.
|-------------------------|-------------------------|--------------|
|-------------------------|-------------------------|--------------|
|-------------------------|-------------------------|--------------|
|-------------------------|-------2-2-2-3-3-3-0-----|--------------|
|-------0-2-3-------5-3-2-|-0-0-0-------------------|--------------|
|-1-1-1-------3-3-3-------|-------------------------|------x-12\---|


   Verse
    Gtr I
    PM--|     PM    PM        PM--|   PM  PM  PM ~~~
    E E E E E E E E E E E E   E E E E E E E E E  Q.
||--------------------------|------------------------|
||o-------------------------|------------------------|
||--------------------------|------------------------|
||--------3p2---5p2---3p2---|------------------------|
||o-0-0-0-----3-----3-----3-|-------3---5---3---[2]--|
||--------------------------|-1-1-1---1---1---1------|
|
|   Gtr II
|   PM--|     PM    PM        PM--|   PM  PM  PM ~~~
|   E E E E E E E E E E E E   E E E E E E E E E  Q.
||--------------------------|------------------------|
||o-------------------------|------------------------|
||--------------------------|------------------------|
||--------7p5---9p5---7p5---|-------2---3---2--------|
||o-0-0-0-----7-----8-----7-|-0-0-0---0---0---0-[2]--|
||--------------------------|------------------------|


  PM--|     PM    PM        PM--|       PM--|
  E E E E E E E E E E E E   E E E E E E E E E E E E
|-------------------------|--------------------------||
|-------------------------|-------------------------o||
|-------------------------|--------------------------||
|-------3p2---5p2---3p2---|-------------------5p3h5--||
|-0-0-0-----3-----3-----3-|-------3p2h3-------------o||
|-------------------------|-1-1-1-------3-3-3--------||
|
| PM--|     PM    PM        PM--|       PM--|
| E E E E E E E E E E E E   E E E E E E E E E E E E
|-------------------------|--------------------------||
|-------------------------|-------------------------o||
|-------------------------|--------------------------||
|-------7p5---9p5---7p5---|-------------------5p3h5--||
|-0-0-0-----7-----8-----7-|-------3p2h3-------------o||
|-------------------------|-1-1-1-------3-3-3--------||


   Pre-Chorus
    PM--|          PM--|             PM----------|
    E E E  E  E  E E E E  E  E  E    E E  E  E E  E  E E  E  E E  E
||--------------------------------|----------------------------------|
||o-------------------------------|----------------------------------|
||--------------------------------|-------7----------9-5-----7-5-----|
||---------7--9-10--------7--9-10-|--9-5-----9-5--7-------9-------9--|
||o-0-0-0----------0-0-0----------|----------------------------------|
||--------------------------------|----------------------------------|
|
|   PM--|          PM--|             PM----------|
|   E E E  E  E  E E E E  E  E  E    E E  E  E E  E  E E  E  E E  E
||--------------------------------|----------------------------------|
||o-------------------------------|----------------------------------|
||--------------------------------|------10---------12-9----10-9-----|
||--------10-12-14-------10-12-14-|-12-9----12-9-10------12------12--|
||o-0-0-0----------0-0-0----------|----------------------------------|
||--------------------------------|----------------------------------|


                                  1.
  PM--|          PM--|            PM----------|
  E E E  E  E  E E E E  E  E  E   E  E E E  E E  E  E E  E  E  E
|-------------------------------|---------------------------------||
|-------------------------------|--------------------------------o||
|-------------------------------|--------9------------------------||
|--------7--9-10--------7--9-10-|------9--------12-10-9-14-12-10--||
|-0-0-0----------0-0-0----------|-7-10-----10-7------------------o||
|-------------------------------|---------------------------------||
|
| PM--|          PM--|            PM----------|
| E E E  E  E  E E E E  E  E  E   E  E E E  E E  E  E E  E  E  E
|-------------------------------|---------------------------------||
|-------------------------------|--------------------------------o||
|-------------------------------|--------9------------------------||
|-------10-12-14-------10-12-14-|------9---------9--7-5-10--9--7--||
|-0-0-0----------0-0-0----------|-7-10-----10-7------------------o||
|-------------------------------|---------------------------------||


  2.
  Gtrs I, II
  E  E E  Q.    E  E  E  Q.
|------------------------------||
|------------------------------||
|------------------------------||
|------9-10----14-12-----------||
|-7-10---------------15-14-----||
|------------------------------||


 Chorus
  Q.   E E E Q.   E E E   Q.   E E E Q.   E E E
|-----------------------|-----------------------|
|-----------------------|-----------------------|
|-5----5-5-5-4----4-4-4-|-----------------------|
|-2----2-2-2-2----2-2-2-|-5----5-5-5-5----5-5-5-|
|-0----0-0-0-0----0-0-0-|-3----3-3-3-3----3-3-3-|
|-----------------------|-1----1-1-1-1----1-1-1-|


  Gtr I
  E E E Q  E E E E E E E   E E E E E  E  E  E E  E E E
|------------------------|-----------------------------|
|------------------------|-----------------------------|
|------------------------|-----------------------------|
|------------------------|-------7h9h10/12p10p9--------|
|-7-7-7-5--5-7-7-7-5-----|-0h3h7----------------10p8p7-|
|-3-3-3-3--3-3-3-3-3-3-3-|-----------------------------|
|
| Gtr II
| E E E Q  E E E E E E E   E E E E E  E  E  E E  E E E
|------------------------|-----------------------------|
|------------------------|-----------------------------|
|------------------------|-------5h7h=9-10p=9p7--------|
|------------------------|-----5-----------------9p7p5-|
|-7-7-7-5--5-7-7-7-5-----|-3h7-------------------------|
|-3-3-3-3--3-3-3-3-3-3-3-|-----------------------------|


  Gtrs I, II
            PM|          PM|              PM|              PM|
   E  E E E E E E  E E E E E    E  E E  E E  E  E  E E  E  E  E
|----------------------------|----------------------------------|
|----------------------------|----------------------------------|
|----------------------------|----------------------------------|
|--2--2-2-2-----2--2-2-2-----|----------------------------------|
|--0--0-0-0-0-0-0--0-0-0-0-0-|--5--5-5--3-------5--5-5--3-------|
|----------------------------|--1--1-1--1-1--1--1--1-1--1--1--1-|
|
| Gtr III
|  H.           H.              Q.      Q    Q.    Q    S  S  E
|----------------------------|----------------------------------|
|----------------------------|---------10-----------------------|
|----------------------------|-12-----------12----10---10h12p10-|
|-10------------9------------|----------------------------------|
|----------------------------|----------------------------------|
|----------------------------|----------------------------------|


             PM|          PM|     PM|   PM|   PM|   PM|
  E  E E  E  E E E E E E  E E   E E E E E E E E E E E E
|-----------------------------|-------------------------|
|-----------------------------|-------------------------|
|-----------------------------|-------------------------|
|-----------------------------|-------------------------|
|-7--7-7--5------7-7-7-5------|-2-----2-----3-----5-----|
|-3--3-3--3--3-3-3-3-3-3--3-3-|---0-0---0-0---1-1---3-3-|
|
| Q.      H.           Q.
|-----------------------------|-------------------------|
|-----------------------------|-------------------------|
|-9---------------------------|-------------------------|
|--------12-------------------|-------------------------|
|-----------------------------|-------------------------|
|-----------------------------|-------------------------|


  Gtrs I, II
  E E E Q.   E E E E E E   E E E Q.   E E E E E E
|------------------------|------------------------|
|------------------------|------------------------|
|------------------------|------------------------|
|------------------------|------------------------|
|-7-7-7-7----7-7-7-7-7-7-|-5-5-5-3----5-5-5-3-3-3-|
|-5-5-5-5----5-5-5-5-5-5-|-1-1-1-1----1-1-1-1-1-1-|


  Gtrs I, II
  E E E Q.   E E E Q.      E  E  E  E  E  E  E  E  E  E  E  E
|-----------------------|-------------------------------------|
|-----------------------|-------------------------------------|
|-----------------------|-----------5--4-----7--5--4--9--7--5-|
|-----------------------|--------5--------5-------------------|
|-7-7-7-5----7-7-7-5----|--3--7-------------------------------|
|-3-3-3-3----3-3-3-3----|-------------------------------------|
|
| Gtr III
|                          E  E  E  E  E  E  E  E  E  E  E  E
|-----------------------|----------12-------15-13-12----------|
|-----------------------|-12-13-15----15-13----------15-13-12-|
|-----------------------|-------------------------------------|
|-----------------------|-------------------------------------|
|-----------------------|-------------------------------------|
|-----------------------|-------------------------------------|


   E  E  E  Q.        E  E  E  E  E  E    E  E  E  Q.        E  E  E  E  E  E
|--------------------------------------|--------------------------------------|
|--------------------------------------|--------------------------------------|
|--------------------------------------|--------------------------------------|
|--------------------------------------|--------------------------------------|
|--7--7--7--7---------7--7--7--7--7--7-|--5--5--5--3---------5--5--5--3--3--3-|
|--5--5--5--5---------5--5--5--5--5--5-|--1--1--1--1---------1--1--1--1--1--1-|
|
|  E  E  E  E   E  E  E  E  E  E  E  E    E  E  E  E   E  E  E  E  E  E  E  E
|--------------------------------------|----------12--------------------------|
|----------13--------------------------|----13-15-----15-13-12-15-13-12----12-|
|----12-16-----16-14-12-16-14-12-14-12-|-12-----------------------------14----|
|-14-----------------------------------|--------------------------------------|
|--------------------------------------|--------------------------------------|
|--------------------------------------|--------------------------------------|


   E  E E Q.   E E E Q.      E  E  E  E E E E  E  E  E E E
|-------------------------|--------------------------------|
|-------------------------|--------------------------------|
|-------------------------|--------------------------------|
|-------------------------|--------------------------------|
|--7--7-7-5----7-7-7-5----|--5--5--5--5-5-5-5--5--5--5-5-5-|
|--3--3-3-3----3-3-3-3----|--1--1--1--1-1-1-1--1--1--1-1-1-|
|
|  ~~~
|  W.                        E  E  E  E E E E  E  E  E Q
|-------------------------|--------------------------------|
|-------------------------|--------------------------------|
|-12----------------------|-12\10-10-10\9-9-9/10-10-10\9---|
|-------------------------|--------------------------------|
|-------------------------|--------------------------------|
|-------------------------|--------------------------------|


  Gtr I
   E  E  E  E  E  E  E  E  E  E  E  E
|----------------------------12-13-15-||
|-------------------------------------||
|-------------------10-12-14----------||
|--9-10-12-10-12-14-------------------||
|-------------------------------------||
|-------------------------------------||
|
| Gtr II
|  E  E  E  E  E  E  E  E  E  E  E  E
|----------------------------17-19-20-||
|-------------------------------------||
|-------------------14-16-17----------||
|-12-14-15-14-15-17-------------------||
|-------------------------------------||
|-------------------------------------||


   Bridge
    Gtrs I, II
     E E  E  W                   +E     E E  E  W                   +E
||-----------------------------------|-----------------------------------|
||o----------------------------------|-----------------------------------|
||-----------------------------------|-----------------------------------|
||-----------------------------------|--9-9--9---------------------------|
||o--7-7--7--7-------------------(7)-|----------5-------------------(5)--|
||---5-5--5--5-------------------(5)-|--7-7--7--7-------------------(7)--|
|
|   Gtr III
|    E E  E  E E  E  E E  E  E E  E     E E  E  E E  E  E E  E  E E  E
||--22-0-19-20-0-20-19-0-19-20-0-17--|-20-0-17-19-0-10-12-0-13-15-0-12---|
||o----------------------------------|-----------------------------------|
||-----------------------------------|-----------------------------------|
||-----------------------------------|-----------------------------------|
||o----------------------------------|-----------------------------------|
||-----------------------------------|-----------------------------------|


  1.
   E E  E  W                      +E     E  E  E  Q.       E  E  E Q.
|-------------------------------------|------------------------------------||
|-------------------------------------|-----------------------------------o||
|-------------------------------------|------------------------------------||
|-------------------------------------|-12-12-12-12-------10-10-10-9-------||
|--7-7--7--7----------------------(7)-|--------------------7--7--7-7------o||
|--8-8--8--8----------------------(8)-|-10-10-10-10------------------------||
|
|  E E  E  E  E  E  E  E  E  E  E  E     E  E  E  E   E E  E  E  E E  E E
|-17-0-13-17-13----15-12--------------|-13-10--0--------0-12--8--0-5--8-0--||
|---------------15-------13----12-15--|----------12--15-------------------o||
|---------------------------12--------|------------------------------------||
|-------------------------------------|------------------------------------||
|-------------------------------------|-----------------------------------o||
|-------------------------------------|------------------------------------||


  2.
   E E  E  E W           E  E  E  Q.       E  E  E Q.
|---------------------|-----------------------------------|
|---------------------|-----------------------------------|
|---------------------|-----------------------------------|
|---------------------|-12-12-12-12-------10-10-10-9------|
|--7-7--7--7----------|-12-12-12-12--------7--7--7-7------|
|--8-8--8--8----------|-10-10-10-10-----------------------|
|
|  E E  E  E W           E  E  E  E   E E  E  E  E E  E E
|-17-0-13-17----------|-13-10--0--------0-12--8--0-5--8-0-|
|---------------------|----------12--15-------------------|
|---------------------|-----------------------------------|
|---------------------|-----------------------------------|
|---------------------|-----------------------------------|
|---------------------|-----------------------------------|


     E E  E  E E  E  E E  E  E E  E    E E  E  E E  E  E E  E  E E  E
||----------------------------------|----------------------------------|
||o---------------------------------|----------------------------------|
||----------------------------------|----------------------------------|
||----------------------------------|----------------------------------|
||o--7-------7-------7-------7------|--5-------5-------5-------5-------|
||-----5--5----5--5----5--5----5--5-|----7--7----7--7----7--7----7--7--|
|
|    E E  E  E E  E  E E  E  E E  E    E E  E  E E  E  E E  E  E E  E
||--22-0-19-20-0-20-19-0-19-20-0-17-|-20-0-17-19-0-10-12-0-13-15-0-12--|
||o---------------------------------|----------------------------------|
||----------------------------------|----------------------------------|
||----------------------------------|----------------------------------|
||o---------------------------------|----------------------------------|
||----------------------------------|----------------------------------|


                                       1.
   E E  E  E  E  E  E  E  H             E  E  E  E  E  E  E  E  E E E E
|------------------------------------|-----------------------------------||
|------------------------------------|----------------------------------o||
|------------------------------------|-----------------------------------||
|------------------------------------|-------------------10-10-10-9-9-9--||
|--7-------7--------7----------------|-12-12-------12-12--7--7--7-7-7-7-o||
|----8--8-----8--8-------------------|-10-10-10-10-10-10-----------------||
|
|  E E  E  E  E  E  E  E  E  E  E  E    E  E  E  E  E  E  E  E  E E E E
|-17-0-13-17-13----15-12-------------|-13-10--0--------0-12--8--0-5-8-0--||
|---------------15-------13----12-15-|----------12-15-------------------o||
|---------------------------12-------|-----------------------------------||
|------------------------------------|-----------------------------------||
|------------------------------------|----------------------------------o||
|------------------------------------|-----------------------------------||


  2.
         TP         TP     TP
   E  E  H          Q.     Q.
|------------------------------------||
|------------------------------------||
|------------------------------------||
|------------------10------9---------||
|-12-12-------------7------7---------||
|-10-10-10---------------------------||
|
|  E  E  E  E  E E  E  E E E  E E
|-13-10--0-------0-12--8-0-5--8-0----||
|----------12-15---------------------||
|------------------------------------||
|------------------------------------||
|------------------------------------||
|------------------------------------||


 Harmony
  Gtr I
   E E  E  E E  E  E E  E  E E  E    E E  E  E E  E  E E  E  E E  E
|-19-0-15-17-0-17-15-0-15-17-0-14-|-17-0-14-15-0--7--8-0-10-12-0--8-|
|---------------------------------|---------------------------------|
|---------------------------------|---------------------------------|
|---------------------------------|---------------------------------|
|---------------------------------|---------------------------------|
|---------------------------------|---------------------------------|
|
| Gtr II
|  E E  E  E E  E  E E  E  E E  E    E E  E  E E  E  E E  E  E E  E
|-22-0-19-20-0-20-19-0-19-20-0-17-|-20-0-17-19-0-10-12-0-13-15-0-12-|
|---------------------------------|---------------------------------|
|---------------------------------|---------------------------------|
|---------------------------------|---------------------------------|
|---------------------------------|---------------------------------|
|---------------------------------|---------------------------------|


   E E  E  E  E  E  E  E  E E  E  E    E  E E E  E E  E E E E E E
|-13-0-10-13--0----12--8----------7-|-10--7-0-3--7-0--8-5-0-1-5-0-|
|---------------12-------10-5--8----|-----------------------------|
|-----------------------------------|-----------------------------|
|-----------------------------------|-----------------------------|
|-----------------------------------|-----------------------------|
|-----------------------------------|-----------------------------|
|
|  E E  E  E  E  E  E  E  E E  E  E    E  E E E  E E  E E E E E E
|-17-0-13-17-13----15-12---------10-|-13-10-0-7-10-0-12-8-0-5-8-0-|
|---------------15-------13-8-12----|-----------------------------|
|-----------------------------------|-----------------------------|
|-----------------------------------|-----------------------------|
|-----------------------------------|-----------------------------|
|-----------------------------------|-----------------------------|


   E E E E E E. S S S S S E Q    W.              +W.
|--7-3-0-0-3-------------------|---------------|--------|
|------------------------------|---------------|--------|
|------------------------------|---------------|--------|
|------------2------------2----|-2-------------|-(2)----|
|------------0--0-0-0-0-0-0----|-0-------------|-(0)----|
|------------------------------|---------------|--------|
|
|  E E E E E E. S S S S S E Q    W.               W.
|-10-7-0-3-7-------------------|---------------|--------|
|------------------------------|---------------|--------|
|------------------------------|---------------|--------|
|------------2------------2----|-2-------------|--2-----|
|------------0--0-0-0-0-0-0----|-0-------------|--0-----|
|------------------------------|---------------|--------|


 Acoustic Part
  Gtrs I, II
  Q   W        Q     W.
|-----------------|----------------|----------------------|
|-----------------|----------------|----------------------|
|-----------------|----------------|----------------------|
|-2---------------|----------------|----------------------|
|-0---------------|----------------|----------------------|
|-----------------|----------------|----------------------|
|
| Gtr IV
| W.                +W.              Q   Q  Q  Q   Q  Q
|-----------------|----------------|----------------------|
|-----------------|----------------|----------------------|
|-5---------------|-(5)------------|--------5---------5---|
|-2---------------|-(2)------------|-----7---------7------|
|-0---------------|-(0)------------|-0---------0----------|
|-----------------|----------------|----------------------|
|
| Gtr V
| W.                +W.              Q   Q  Q  Q   Q  Q
|-----------------|----------------|----------------------|
|-----------------|----------------|----------------------|
|-5---------------|-(5)------------|--------9---------9---|
|-2---------------|-(2)------------|----10--------10------|
|-0---------------|-(0)------------|-0---------0----------|
|-----------------|----------------|----------------------|


  Gtr IV
  Q  Q  Q  Q  S S E Q    a  W             Q  Q
|----------------------|-------------------------|
|----------------------|-------------------------|
|-------5--9--7h9p7----|-------------------------|
|----7--------------9--|-9/12------------10--9---|
|-0--------------------|-------------------------|
|----------------------|-------------------------|
|
| Gtr V
| Q  Q  Q  Q  S S E Q    Q    Q  Q  H.
|----------------------|-------------------------|
|----------1--0h1p0----|-------------------------|
|-------2-----------2--|------------0------------|
|----2-----------------|---------2---------------|
|-0--------------------|------2------------------|
|----------------------|-0-----------------------|


   W.                  H.         Q   S  S  E Q
|--------------------|--------------------------|
|--------------------|--------------------------|
|--------------------|-----------12--10h12p10-9-|
|-10-----------------|-9------------------------|
|--------------------|--------------------------|
|--------------------|--------------------------|
|
|  Q   Q  Q  H.        Q   Q  Q   Q   S  S  E Q
|--------------------|--------------------------|
|--------------------|------------5---3h=5p=3---|
|---------2--2-------|------------------------5-|
|------3-----3-------|--------5-----------------|
|------------3-------|-----5--------------------|
|--1---------1-------|-3------------------------|


  H.            Q.     S  S  E Q     Q   S  S  E Q    Q   S  S E Q
|---------------------------------|---------------------------------|
|---------------------------------|---------------------------------|
|--------------12-----10h12p10-9--|-12--10h12p10-9---10---9h10p9-7--|
|---------------------------------|---------------------------------|
|---------------------------------|---------------------------------|
|---------------------------------|---------------------------------|
|
| Q   E E  E E  Q   H                Q   Q     Q   Q    E E  Q
|---------------------------------|---------------------------------|
|---------------------------------|----------------3----1-0--1------|
|------------7--9-----------------|---------------------------------|
|-----7-9-10----------------------|------------2--------------------|
|-0-------------------------------|------2--------------------------|
|---------------------------------|--0------------------------------|


  H.        H.         Q  S  S E  Q  Q  S S E  Q
|-------------------|------------------------------|
|-------------------|------------------------------|
|-----------9-------|------------12-----------10---|
|-7-----------------|-10--9h10p9-----9--7h9p7------|
|-------------------|------------------------------|
|-------------------|------------------------------|
|
| Q   Q  Q  H.         Q  S  S E  Q  Q  S S E  Q
|-------------------|------------------------------|
|-------------------|------------------------------|
|--------2--2-------|-------------9------------7---|
|-----3-----3-------|--7--5h=7p5-----5--3h5p3------|
|-----------3-------|------------------------------|
|-1---------1-------|------------------------------|


  W           Q    Q       W             Q  Q
|-----------------------|------------------------|
|-----------------------|------------------------|
|-9-----------9---10----|-------------------9----|
|-----------------------|-12------------12-------|
|-----------------------|------------------------|
|-----------------------|------------------------|
|
| Q  Q  Q  Q  S S  E Q     Q  Q  Q  H.
|-----------------------|------------------------|
|----------1--0h1p=0----|------------------------|
|-------2------------2--|-----------0------------|
|----2------------------|--------2---------------|
|-0---------------------|-----2------------------|
|-----------------------|--0---------------------|


   H.         H.        Q   Q   Q   H     S  S  E
|---------------------|---------------------------|
|---------------------|------------13----12h13p12-|
|---------------------|-9--10--12-----------------|
|-10---------12-------|---------------------------|
|---------------------|---------------------------|
|---------------------|---------------------------|
|
|  Q   Q  Q   H.        Q   Q   Q   H     S  S  E
|---------------------|---------------------------|
|---------------------|---------------------------|
|---------2---2-------|-4---5---7---9-----7h=9p=7-|
|------3------3-------|---------------------------|
|-------------3-------|---------------------------|
|--1----------1-------|---------------------------|


   H.        Q   Q    a  Q    W           Q    Q
|---------------------------|---------------------|
|-10---------8--10---10S12--|-8-----------8---10--|
|---------------------------|---------------------|
|---------------------------|---------------------|
|---------------------------|---------------------|
|---------------------------|---------------------|
|
|  Q   Q  Q  Q   S S  E  Q    Q  Q  Q  Q  E E  Q
|---------------------------|---------------------|
|------------1---0h1p=0-----|----------3--1-0--1--|
|---------2--------------2--|---------------------|
|------2--------------------|-------2-------------|
|--0------------------------|----2----------------|
|---------------------------|-0-------------------|


   a  W.
|---------------------||
|-10/13---------------||
|---------------------||
|---------------------||
|---------------------||
|---------------------||
|
|     Q   Q  Q  H.
|---------------------||
|---------------------||
|------------2--2-----||
|---------3-----3-----||
|---------------3-----||
|-----1---------1-----||


 Heavy Break
  Gtrs I, II
         PM-|
   Q     Q   Q   Q      Q      Q
|------------------------------------|
|------------------------------------|
|------------------------------------|
|------------------------------------|
|--5-----5---5---5------5------5-----|
|--3-----3---3---3------3------3-----|
|
| Gtr III
|  H         Q   Q      Q      Q
|------------------------------------|
|-13b15-----13--15b17--15b17--15b17--|
|------------------------------------|
|------------------------------------|
|------------------------------------|
|------------------------------------|


   Q   Q  Q   Q      S    S  E Q     Q    Q      Q  Q   S S  E Q
|---------------------------------|--------------------------------|
|-------------1------0h===1p=0----|-----------------3---0h1p=0-----|
|--2------2--------------------2--|----------------------------0---|
|--2---2--------------------------|--------------2-----------------|
|--0------------------------------|-------2------------------------|
|---------------------------------|--0-----------------------------|
|
|  ~~~
|  H.         Q      Q       Q       Q   +H.            Q    Q
|---------------------------------|--------------------------------|
|-15---------15b17--15b17---12----|-13--(13)b15--------13---12-----|
|---------------------------------|--------------------------------|
|---------------------------------|--------------------------------|
|---------------------------------|--------------------------------|
|---------------------------------|--------------------------------|


   Q   Q  Q  H.         Q   Q  Q   Q   S  S  E  Q
|--------------------|-----------------------------|
|--------------------|-------------5---3h=5p=3-----|
|---------2--2-------|--------------------------5--|
|------3-----3-------|---------5-------------------|
|------------3-------|------5----------------------|
|--1---------1-------|--3--------------------------|
|
|  W.                   H.         Q   S  S  E  Q
|--------------------|------------15--13h15p13S12--|
|-13-----------------|-12--------------------------|
|--------------------|-----------------------------|
|--------------------|-----------------------------|
|--------------------|-----------------------------|
|--------------------|-----------------------------|


    Q    Q     Q     Q   S S E  Q     Q   Q        Q   Q   E  E     Q
|--------------------3---1h3p1--0--|-----------------------------------|
|----------------------------------|-------------------3---1--0-----1--|
|--------------2-------------------|-----------------------------------|
|--------2-------------------------|---------------2-------------------|
|---0------------------------------|------2----------------------------|
|----------------------------------|--0--------------------------------|
|
|  +Q    E  E  E  E  Q   Q      Q     Q   E  S  S  Q   Q   E  S  S  Q
|-(12)--------------12-------------|-15--13h15p13-12--13--12h13p12-----|
|----------12-13-15-----15-----13--|-------------------------------15--|
|-------14-------------------------|-----------------------------------|
|----------------------------------|-----------------------------------|
|----------------------------------|-----------------------------------|
|----------------------------------|-----------------------------------|


   Q   Q  Q   H.                     Q   Q   Q   Q   Q   Q
|---------------------------------|-------------------------|
|---------------------------------|-------------------------|
|---------2---2-------------------|----------9-----------7--|
|------3------3-------------------|--7---5-------5---3------|
|-------------3-------------------|-------------------------|
|--1----------1-------------------|-------------------------|
|
|  H.         Q      Q      Q        Q   Q   Q   Q   Q   Q
|---------------------------------|---------15----------13--|
|-13---------15b17--15b17--15b17--|-13--12------12--10------|
|---------------------------------|-------------------------|
|---------------------------------|-------------------------|
|---------------------------------|-------------------------|
|---------------------------------|-------------------------|


      PM-----------|         PM-----------|
   Q  Q  Q  Q   Q   Q     Q  Q  Q  Q   Q   Q
|----------------------|----------------------|
|----------------------|----------------------|
|--2-------------------|----------------------|
|--2--2--2--2---2---2--|--2-------------------|
|--0--0--0--0---0---0--|--2--2--2--2---2---2--|
|----------------------|--0--0--0--0---0---0--|
|
|  ~~
|  W            Q   Q     W            Q   Q
|-12-----------12--13--|------------------12--|
|----------------------|-15-----------15------|
|----------------------|----------------------|
|----------------------|----------------------|
|----------------------|----------------------|
|----------------------|----------------------|


      PM-----------|
   Q  Q  Q  Q   Q    Q       Q   Q   Q   Q  S S  E  Q
|-------------------------|----------------------------------|
|-------------------------|--------------5--3h5p=3-----------|
|-------------------------|-------------------------5--------|
|--3----------------------|--5---5---5-----------------------|
|--3--3--3--3---3----3----|--5---5---5-----------------------|
|--1--1--1--1---1----1----|--3---3---3-----------------------|
|
|  ~~
|  W            Q   +Q       Q   Q   Q   H       S  S  S  S
|-------------------------|-12--13--15--20------17h19p17S15--|
|-13-----------15--(15)\--|----------------------------------|
|-------------------------|----------------------------------|
|-------------------------|----------------------------------|
|-------------------------|----------------------------------|
|-------------------------|----------------------------------|


   Q     Q  Q  Q       S S E  Q     Q   Q   Q  Q   E  E  Q
|--------------3-------1h3p1--0--|----------------------------|
|--------------------------------|-------------3---1--0--1----|
|-----------2--------------------|----------------------------|
|--------2-----------------------|----------2-----------------|
|--0-----------------------------|------2---------------------|
|--------------------------------|--0-------------------------|
|
|  E  H.          +E   Q      Q     Q   Q   H      E  E  E  E
|-15S17----------(17)-15---------|----------------------------|
|----------------------------18--|-17--18--17-----17h18p17p15-|
|--------------------------------|----------------------------|
|--------------------------------|----------------------------|
|--------------------------------|----------------------------|
|--------------------------------|----------------------------|


                                 PM-|
   Q  Q    Q      H.         Q   Q   Q   Q   Q   Q
|-------------------------|-------------------------|
|-------------------------|-------------------------|
|----------2------2-------|-------------------------|
|-----3-----------3-------|-------------------------|
|-----------------3-------|--5---5---5---5---5---5--|
|--1--------------1-------|--3---3---3---3---3---3--|
|
|  H      +W                 Q   Q   Q   Q   Q   Q
|-------------------------|---------15----------13--|
|-13-----(13)b15r=========|=13--12------12--10------|
|-------------------------|-------------------------|
|-------------------------|-------------------------|
|-------------------------|-------------------------|
|-------------------------|-------------------------|


 Outro
  Gtr I
  E E E E Q  E E E E E E   E E E E W
|------------------------|------------------------|
|------------------------|------------------------|
|------------------------|------------------------|
|-2-2-2-2----2-2-2-2-2-2-|------------------------|
|-0-0-0-0----0-0-0-0-0-0-|-5-5-5-3----------------|
|------------------------|-1-1-1-1----------------|
|
| Gtr II
| E E E E W                E E E E Q  E E E E E E
|------------------------|------------------------|
|------------------------|------------------------|
|------------------------|------------------------|
|-2-2-2-2----------------|------------------------|
|-0-0-0-0----------------|-5-5-5-3----5-5-5-3-3-3-|
|------------------------|-1-1-1-1----1-1-1-1-1-1-|


  E E E E Q  E E E E E E   E E E E E  E  E  E E  E E E
|------------------------|--------------------------------|
|------------------------|--------------------------------|
|------------------------|--------------------------------|
|------------------------|-------7-9-10-12-10-9-----------|
|-7-7-7-5----7-7-7-5-5-5-|-0-3-7----------------10-8-7----|
|-3-3-3-3----3-3-3-3-3-3-|--------------------------------|
|
| E E E E W                E E E E E  E  E  E E  E E E
|------------------------|--------------------------------|
|------------------------|--------------------------------|
|------------------------|-------5-7--9-10--9-7-----------|
|------------------------|-----5-----------------9-7-5----|
|-7-7-7-5----------------|-3-7----------------------------|
|-3-3-3-3----------------|--------------------------------|


  Gtrs I, II
            PM|          PM|              PM|             PM---|
   E  E E E E E E  E E E E E    E  E E  E E  E  E E  E E  E     E
|----------------------------|------------------------------------|
|----------------------------|------------------------------------|
|----------------------------|------------------------------------|
|--2--2-2-2-----2--2-2-2-----|------------------------------------|
|--0--0-0-0-0-0-0--0-0-0-0-0-|--5--5-5--3-------5-5--5-3----------|
|----------------------------|--1--1-1--1-1--1--1-1--1-1--1-----1-|
|
| Gtr III
|  H.           H.              Q.      Q    Q.      Q    S  S  E
|----------------------------|------------------------------------|
|----------------------------|---------10-------------------------|
|----------------------------|-12-----------12------10---10h12p10-|
|-10------------9------------|------------------------------------|
|----------------------------|------------------------------------|
|----------------------------|------------------------------------|


            PM|         PM|        PM|     PM|      PM|      PM|
  E  E E  E E E E E E E E   E    E E E  E  E  E  E  E  E  E  E  E
|------------------------------|----------------------------------|
|------------------------------|----------------------------------|
|------------------------------|----------------------------------|
|------------------------------|----------------------------------|
|-7--7-7--5-----7-7-7-5--------|-2------2--------3--------5-------|
|-3--3-3--3-3-3-3-3-3-3-3---3--|---0-0-----0--0-----1--1-----3--3-|
|
| Q.      W                +E    E E E  E  E  E  E  E  E  E  E  E
|------------------------------|----------------------------------|
|------------------------------|----------------10-10-10-12-12-12-|
|-9----------------------------|-9-9-9-12-12-12-------------------|
|--------12---------------(12)-|----------------------------------|
|------------------------------|----------------------------------|
|------------------------------|----------------------------------|


   E E E Q.   E E  E E  E  E    E E E  Q.          E E E  E  E  E
|----------------------------|------------------------------------|
|----------------------------|------------------------------------|
|----------------------------|------------------------------------|
|----------------------------|------------------------------------|
|--7-7-7-7----7-7--7-7--7--7-|--5-5-5--3-----------5-5-5--3--3--3-|
|--5-5-5-5----5-5--5-5--5--5-|--1-1-1--1-----------1-1-1--1--1--1-|
|
|  ~~
|  W               Q    E  E    Q   E  Q      H           E  E  E
|----------------------------|------------------------------------|
|-13--------------12---13-12-|--------15b17--15b17-------13-15-13-|
|----------------------------|-14---------------------------------|
|----------------------------|------------------------------------|
|----------------------------|------------------------------------|
|----------------------------|------------------------------------|


   E  E E  Q.   E E E Q.          E  E  E  E  E  E  E  E  E  E  E  E
|------------------------------|-------------------------------------|
|------------------------------|-------------------------------------|
|------------------------------|-----------5--4-----7--5--4--9--7--5-|
|------------------------------|--------5--------5-------------------|
|--7--7-7--5----7-7-7-5--------|--3--7-------------------------------|
|--3--3-3--3----3-3-3-3--------|-------------------------------------|
|
|          ~~~
|  Q.      W               +E     E  E  E  E  E  E  E  E  E  E  E  E
|------------------------------|----------12-------15-13-12----------|
|-15---------------------------|-12-13-15----15-13----------15-13-12-|
|---------12--------------(12)-|-------------------------------------|
|------------------------------|-------------------------------------|
|------------------------------|-------------------------------------|
|------------------------------|-------------------------------------|


   E  E  E  Q.        E  E  E  E  E  E    E  E  E  Q.        E  E  E  E  E  E
|--------------------------------------|--------------------------------------|
|--------------------------------------|--------------------------------------|
|--------------------------------------|--------------------------------------|
|--------------------------------------|--------------------------------------|
|--7--7--7--7---------7--7--7--7--7--7-|--5--5--5--3---------5--5--5--3--3--3-|
|--5--5--5--5---------5--5--5--5--5--5-|--1--1--1--1---------1--1--1--1--1--1-|
|
|  E  E  E  E   E  E  E  E  E  E  E  E    E  E  E  E   E  E  E  E  E  E  E  E
|--------------------------------------|----------12--------------------------|
|----------13--------------------------|----13-15-----15-13-12-15-13-12----12-|
|----12-16-----16-14-12-16-14-12-14-12-|-12-----------------------------14----|
|-14-----------------------------------|--------------------------------------|
|--------------------------------------|--------------------------------------|
|--------------------------------------|--------------------------------------|


   E  E E Q.   E E E Q.      E  E  E  E E E E  E  E  E E E
|-------------------------|--------------------------------|
|-------------------------|--------------------------------|
|-------------------------|--------------------------------|
|-------------------------|--------------------------------|
|--7--7-7-5----7-7-7-5----|--3--3--3--3-3-3-5--5--5--5-5-5-|
|--3--3-3-3----3-3-3-3----|--1--1--1--1-1-1-1--1--1--1-1-1-|
|
|  ~~~
|  W.                        E  E  E  E E E E  E  E  E Q
|-------------------------|--------------------------------|
|-------------------------|--------------------------------|
|-12----------------------|-12S10-10-10S9-9-9S10-10-10S9---|
|-------------------------|--------------------------------|
|-------------------------|--------------------------------|
|-------------------------|--------------------------------|


   E  E  E  E  E  E  E  E H
|------------------------------*|
|------------------------------*|
|------------------------------*|
|------------------------------*|
|--7--7--7--7--7--7--7---------*|
|--5--5--5--5--5--5--5---------*|
|
|  E  E  E  E  E  E  H.
|-------12-17-12---------------*|
|----13----------13------------*|
|-14----------------14\--------*|
|------------------------------*|
|------------------------------*|
|------------------------------*|


Duration Legend
---------------
W - whole; H - half; Q - quarter; E - 8th; S - 16th; T - 32nd; X - 64th; a - acciaccatura
+ - note tied to previous; . - note dotted; .. - note double dotted
Uncapitalized letters represent notes that are staccato (1/2 duration)
Irregular groupings are notated above the duration line
Duration letters will always appear directly above the note/fret number it represents the
duration for.  Duration letters with no fret number below them represent rests.  Multi-
bar rests are notated in the form Wxn, where n is the number of bars to rest for.  Low
melody durations appear below the staff

Tablature Legend
----------------
 h   - hammer-on
 p   - pull-off
 b   - bend
 pb  - pre-bend
 r   - bend release (if no number after the r, then release immediately)
 /\  - slide into or out of (from/to "nowhere")
 s   - legato slide
 S   - shift slide
  - natural harmonic
[n]  - artificial harmonic
n(n) - tapped harmonic
 ~   - vibrato
 tr  - trill
 T   - tap
 TP  - trem. picking
 PM  - palm muting
\n/  - tremolo bar dip; n = amount to dip
 \n  - tremolo bar down
 n/  - tremolo bar up
/n\  - tremolo bar inverted dip
 =   - hold bend; also acts as connecting device for hammers/pulls
 <>  - volume swell (louder/softer)
 x   - on rhythm slash represents muted slash
 o   - on rhythm slash represents single note slash

Misc Legend
-----------
 |  - bar
||  - double bar
||o - repeat start
o|| - repeat end
*|  - double bar (ending)
 :  - bar (freetime)
 $  - Segno
 &  - Coda
Tempo markers -  = BPM(8/16=s8/s16), where s8 = swing 8ths, s16 = swing 16ths


***************************************************************************************
* Generated using Power Tab Editor by Brad Larsen - http://powertab.guitarnetwork.org *
***************************************************************************************
comments
print report bad tab
1 comment total.
+2 reply
Shredder Guitar wrote on January 24 2010, 01:35 pm

you are amazing for posting this.

I want to post or [tab]
guest
You may want to rate the tab now too:
select rating
Please do not post tabs as comments. Select "correction" instead!