Oops, an error
Loading. Please wait.

Self Portraits Of The Instincts Tab

ver1
ver1

Whole song

Interactive

More versions @911Tabs.com
659 views 3 this week
no commentswrite comment
1 2 3 4 5
please rate
Autoscroll
+/-
esc
set tempo
stop
Contributor
Difficulty
Tuning
intermediate
C G C F A D
Hey! There's an official Ultimate Guitar app which is ideal
for learning songs when you're away from computer. Get the app
WARNING: You are trying to view
                                    content from Ultimate-Guitar.com
                                    in an unauthorized application,
                                    which is prohibited.

                                    Please use an official Ultimate
                                    Guitar Tabs application for iPhone,
                                    iPad or Android to access legitimate
                                    chords, guitar, bass, and drum tabs
                                    from Ultimate-Guitar.com database.

                                    Type "ultimate guitar tabs" in Apple
                                    App Store's or Android Market's
                                    search to find the application.
     E  E  E  E  E  E  E  E  E  E  E  E  E  E  E  E
D||--------------------------------------------------|
A||--------------------------------------------------|
F||--------------------------------------------------|
C||--------------------------------------------------|
G||-----------------4--5--4--2-----------------------|
C||--0--0--4--3--0--------------4--3--0--4--3--0--6--|


                           |---3---|   |---3---|   |---3---|   |---3---|
  E  E  E  E  E  E  E  E   E   E   E   E   E   E   E   E   E   E   E   E
--------------------------21--17------------------------------------------|
----------------------------------19--------------------------------------|
--------------------------------------18------------------------------18--|
-----------------0--3---------------------19------------------16--19------|
----------------------------------------------21----------16--------------|
--0--0--6--4--0-----------------------------------16--19------------------|


  E  E  E  E  E  E  E  E  E  E  E  E  E  E  E
-----------------------------------------------|
-----------------------------------------------|
-----------------------------------------------|
-----------------------------------------------|
--2--------0-----------------------5--4--2--4--|
-----0--0-----0--0--6--7--4--3--0--------------|


  E  E  E  E  E  E  E  E  E  E  E  E  E  E  E  E
--------------------------------------------------|
--------------------------------------------------|
--------------------------------------------------|
--------------------3-----4-----------------------|
--5-----2--4--5-----------------5--4--2-----0-----|
-----0-----------0-----0-----0-----------0-----0--|


  PM  PM  PM  PM  PM  PM  PM
  E.  E.  E.  E.  E.  E.  E.  H.
-------------------------------------------|
-------------------------------------------|
-------------------------------------------|
--7---6---3---7---6---3---4----------------|
--7---7---4---7---7---4---4----------------|
--7---6---3---7---6---3---4----------------|


              |---3---|
  E  E  E  E  E   E   E  E  E  E  E  E  E  E  E  E  E
-------------------------------------------------------|
-------------------------------------------------------|
-------------------------------------------------------|
--4-----4-----4h--6h--7--------7-----4--6-----4--3--0--|
-------------------------------------------------------|
-----4-----4-------------4--4-----4--------4-----------|


              |---3---|
  E  E  E  E  E   E   E  E  E  E   E  E  E   E  E  E   E
----------------------------------------------------------|
----------------------------------------------------------|
----------------------------------------------------------|
--3-----3-----3h--4h--6--------3h--4-----3h--4-----4p--3--|
----------------------------------------------------------|
-----3-----3-------------3--3---------3---------3---------|


  PM   PM        PM
  Q    Q    Q    E  E  E  Q.     E  Q.
-------------------------------------------|
-------------------------------------------|
-------------------------------------------|
--4----3---------4-----0---------3---------|
--5----4---------5-----0---------5---------|
--4----3---------4-----0---------3---------|


  Q    Q    Q    Q    Q    Q    Q    Q
------------------------------------------|
------------------------------------------|
------------------------------------------|
--4----3---------3---------4---------4----|
--5----4---------5---------5---------5----|
--4----3---------3---------4---------4----|


  PM
  Q    Q    E  E  E  Q.     Q    Q    Q       Q    Q    Q    Q    Q
-------------------------------------------|---------------------------|
-------------------------------------------|---------------------------|
-------------------------------------------|---------------------------|
--3---------4-----0---------3---------4----|--3---------3---------4----|
--4---------5-----0---------5---------5----|--4---------5---------5----|
--3---------4-----0---------3---------4----|--3---------3---------4----|


    |----3----|     |----3----|       |----3----|     |----3----|
    Q    Q    Q     Q    Q    Q       Q    Q    Q     Q    Q    Q
|----------------------------------|------------7----10--------------|
|---7----0----9----10--------------|--0----7---------------7---------|
|*-----------------------7---------|----------------------------7----|
|*----------------------------7----|---------------------------------|
|----------------------------------|---------------------------------|
|----------------------------------|---------------------------------|


   |----3----|     |----3----|       |----3----|    |----3----|
   Q    Q    Q     Q    Q    Q       Q    Q    Q    Q    Q    Q
--10--------------10--------------|--9--------------7---------------||
--------7---------------7---------|-------7--------------7----------||
-------------7---------------7----|------------7--------------7----*||
----------------------------------|--------------------------------*||
----------------------------------|---------------------------------||
----------------------------------|---------------------------------||


  3   3 3 3    |--3--|  |--3--|  |--3--|
  S T S S E  X E  E  E  E  E  E  E  E  E
------------------------------------------|
------------------------------------------|
---------------------------------------6--|
---------------------4--7--6--4--6--4-----|
------------------4-----------------------|
--4---4-4-4----4--------------------------|


  3   3 3 3                       |--3--|
  S T S S E  X S S. S T S  S  S S S  S  S X S
----------------------------------------------|
----------------------------------------------|
----------------------------------6h-7p-6-----|
---------------7----6---3h-4p-3-------------6-|
----------------------------------------------|
--0---0-0-0-----------------------------------|


  3   3 3 3    |--3--|  |--3--|  |--3--|
  S T S S E  X E  E  E  E  E  E  E  E  E
------------------------------------------|
------------------------------------------|
---------------------------------------6--|
---------------------4--7--6--4--6--4-----|
------------------4-----------------------|
--4---4-4-4----4--------------------------|


  3   3 3 3                       |--3--|
  S T S S E  X S S. S T S  S  S S S  S  S T S
----------------------------------------------|
----------------------------------------------|
----------------------------------------------|
---------------7----6---3h-4p-3---------------|
----------------------------------4h-5p-4---2-|
--0---0-0-0-----------------------------------|


  |--3--|  |--3--|   |--3--|   |--3--|
  E  E  E  E  E  E   E  E  E   E  E  E
----------------------------------------|
----------------------------------------|
----------------------------------------|
-------------------------------------9--|
--9--------9--------11--------12--------|
-----0--0-----0--0------0--0------0-----|


   |--3--|   |--3-| |--3--|           |---3---|
   E  E  E   S  S S S  S  S S.  S E   E   E   E
-------------------------------------------------|
-------------------------------------------------|
-------------------------------------------------|
--12--------12-11-9-9----------12----14--12--11--|
----------------------12-11-9--------------------|
------0--0------------------------0--------------|


   |--3--|  |--3--|   |--3--|   |---3--|
   E  E  E  E  E  E   E  E  E   E  E   E
------------------------------------------|
------------------------------------------|
------------------------------------------|
------------9--------11--------12-----14--|
--12--------------------------------------|
------0--0-----0--0------0--0------0------|


   |--3--|  |--3--|           |--3--|  |--3--|
   S  S  S  S  S  S  S. S. S  S  S  S  S  S  S  S. S. S.
--------------------16-17-19-------------------17-19-21-|
-----------15-17-19-------------------17-19-21----------|
--14-16-18-------------------16-18-19-------------------|
--------------------------------------------------------|
--------------------------------------------------------|
--------------------------------------------------------|


    |--3--|  |--3--|  |--3--|  |--3--|     |--3--|  |--3--|  |--3--|  |--3--|
    E  E  E  E  E  E  E  E  E  E  E  E     E  E  E  E  E  E  E  E  E  E  E  E
|---------------------------------------|--------------------------------------|
|---------------------------------------|--------------------------------------|
|*--------------------------------------|--------------------------------------|
|*--4--4--4--4--4--4--4--4--4--4--4--4--|--4--4--4--4--4--4--4--4--4--4--4--4--|
|---4--4--4--4--4--4--4--4--4--4--4--4--|--5--5--5--5--5--5--5--5--5--5--5--5--|
|---4--4--4--4--4--4--4--4--4--4--4--4--|--0--0--0--0--0--0--0--0--0--0--0--0--|


  |--3--|  |--3--|  |--3--|  |--3--|     |--3--|  |--3--|  |--3--|  |--3--|
  E  E  E  E  E  E  E  E  E  E  E  E     E  E  E  E  E  E  E  E  E  E  E  E
--------------------------------------|---------------------------------------||
--------------------------------------|---------------------------------------||
--------------------------------------|--------------------------------------*||
--6--6--6--6--6--6--6--6--6--6--6--6--|--6--6--6--6--6--6--6--6--6--6--6--6--*||
--7--7--7--7--7--7--7--7--7--7--7--7--|--4--4--4--4--4--4--4--4--4--4--4--4---||
--------------------------------------|---------------------------------------||


  E  T T T T H
----------------------|
----------------------|
----------------------|
--4----------4--------|
--5----------5--------|
-----0-0-0-0----------|


  S S  S  S S  S  S S  S  S S  S  S  S  S  S  S  S  S S  S  S  S S S  S  S S S S
------------------------------------12------------------12---------9-------------|
---------------------------------------10----------------------------------------|
--------------13------------9-11----------11----------9----11--------11----------|
-----------------11---12-12------12----------11-11-12---------11-9------11-9-----|
--9-9-11-12-9-------9--------------------------------------------------------9-9-|
---------------------------------------------------------------------------------|


  S  S  S S  S  S S  S  S  S  S  S  S  S  S S  S  S  S S S  S  S S  S  S  S  S
--------------------------12------------------12---------9-----------------------|
-----------------------------10--------------------------------------------------|
----13------------9-11----------11----------9----11--------11--------------------|
-------11---12-12------12----------11-11-12---------11-9------11-9---------------|
--9-------9--------------------------------------------------------11-11-13-14-1-|
---------------------------------------------------------------------------------|


   S  S  S  S  S  S  S  S  S  S  S  S  S  S  S  S  S  S  S  S  S  S  S  S  S  S
-----------------14-------------------14----------11----------------------------|
--------------------12----------------------------------------------------------|
--------11-13----------13----------11----13----------13----------------------15-|
--14-14-------14----------13-13-14----------13-11-------13-11-------------------|
--------------------------------------------------------------11-11-13-14-11----|
--------------------------------------------------------------------------------|


   S  S  S  S  S  S  S  S  S  S  S  S  S  S  S  S
-----14-------------------14----------11----------|
--------12----------------------------------------|
-----------13----------11----13----------13-------|
--14----------13-13-14----------13-11-------13-11-|
--------------------------------------------------|
--------------------------------------------------|


                                            |--3--|
  E  E  E  E  E  E  E  E  E  E  E  E  E  E  E  E  E
-----------------------------------------------------|
-----------------------------------------------------|
-----------------------------------------------------|
--------------------------------------------3--7--3--|
--8--4-----8--7-----8--4-----0--4--5--4--0-----------|
--------0--------0--------0--------------------------|


  E  E  E  E  E  E   E  E  E   E  E  E   E  E  E  E
-----------------------------------------------------|
-----------------------------------------------------|
--------------------12--9----------------------------|
--0-----7--3------------------11-----8---------------|
-----0--------0--0---------0------0-----10-----8--4--|
-----------------------------------------------------|


                                      |--3--|
  E  E  E  E  E  E  E  E  E  E  E  E  E  E  E  E  E
-----------------------------------------------------|
-----------------------------------------------------|
-----------------------------------------------------|
--------------------------------------3--7--3--0-----|
-----8--7-----8--4-----0--4--5--4--0--------------0--|
--0--------0--------0--------------------------------|


  E  E  E  E   E  E  E   E  E  E   E  E  E  E  E  E
-----------------------------------------------------|
-----------------------------------------------------|
--------------12--9----------------------------------|
--7--3------------------11-----8---------------------|
--------0--0---------0------0-----10-----8--4-----8--|
-----------------------------------------------------|


                                |--3--|
  E  E  E  E  E  E  E  E  E  E  E  E  E  E  E  E  E
-----------------------------------------------------|
-----------------------------------------------------|
-----------------------------------------------------|
--------------------------------3--7--3--0-----7--3--|
--7-----8--4-----0--4--5--4--------------------------|
-----------------------------------------------------|


  E  E   E  E  E   E  E  E   E  E  E  E  E  E  E  E
-----------------------------------------------------|
-----------------------------------------------------|
--------12--9----------------------------------------|
-----0------------11-----8---------------------------|
----------------------------10-----8--4-----8--7-----|
-----------------------------------------------------|


                          3  3
  E  E  E  E  E  E  E  E  E  E  E  E  E  E  E  E  E
-----------------------------------------------------|
-----------------------------------------------------|
-----------------------------------------------------|
--------------------------3--7--3--0-----7--3-----0--|
--8--4-----0--4--5--4--------------------------------|
-----------------------------------------------------|


   E  E  E   E  E  E   E  Q.     E  E  E  E  E  E     E  E  E  E  E  E    E
---------------------------------------------------|--------------------------|
---------------------------------------------------|-----------------6--<>9\--|
--12--9--------------------------------------------|--------------7-----------|
------------11-----8-------------0--3--7--0--6--9--|--0--7--6--9--------------|
----------------------10---------------------------|--------------------------|
---------------------------------------------------|--------------------------|


   |--3--|  |--3--|           |--3--|  |--3--|
   S  S  S  S  S  S  S. S. S  S  S  S  S  S  S  S. S. S.
--------------------16-17-19-------------------17-19-21-|
-----------15-17-19-------------------17-19-21----------|
--14-16-18-------------------16-18-19-------------------|
--------------------------------------------------------|
--------------------------------------------------------|
--------------------------------------------------------|


    |--3--|  |--3--|  |--3--|  |--3--|     |--3--|  |--3--|  |--3--|  |--3--|
    E  E  E  E  E  E  E  E  E  E  E  E     E  E  E  E  E  E  E  E  E  E  E  E
|---------------------------------------|--------------------------------------|
|---------------------------------------|--------------------------------------|
|*--------------------------------------|--------------------------------------|
|*--4--4--4--4--4--4--4--4--4--4--4--4--|--4--4--4--4--4--4--4--4--4--4--4--4--|
|---4--4--4--4--4--4--4--4--4--4--4--4--|--5--5--5--5--5--5--5--5--5--5--5--5--|
|---4--4--4--4--4--4--4--4--4--4--4--4--|--------------------------------------|


  |--3--|  |--3--|  |--3--|  |--3--|     |--3--|  |--3--|  |--3--|  |--3--|
  E  E  E  E  E  E  E  E  E  E  E  E     E  E  E  E  E  E  E  E  E  E  E  E
--------------------------------------|---------------------------------------||
--------------------------------------|---------------------------------------||
--------------------------------------|--------------------------------------*||
--6--6--6--6--6--6--6--6--6--6--6--6--|--6--6--6--6--6--6--6--6--6--6--6--6--*||
--7--7--7--7--7--7--7--7--7--7--7--7--|--4--4--4--4--4--4--4--4--4--4--4--4---||
--------------------------------------|---------------------------------------||


  E  T T T T H
----------------------|
----------------------|
----------------------|
--4----------4--------|
--5----------5--------|
-----0-0-0-0----------|


                           W
   |--3--|  |--3--|  |--3--|           |--3--|  |--3--|        |--3--|  |--3--|
   S  S  S  S  S  S  S  S  Q    E  E   S  S  S  S  S  S E  E   S  S  S  S  S  S
--22-16-13-22-13-14-22-13-10----------------------------------13-14-16-14-16-17-|
-----------------------------------------------12-14-15-------------------------|
--------------------------------------11-13-14----------------------------------|
--------------------------------------------------------------------------------|
--------------------------------------------------------------------------------|
--------------------------------------------------------------------------------|


                  W
         |--3--|      |--3--|     |--3--|     |--3-|     |--3--|
  E  E   S  S  S  E   S  S  S E   S  S  S E   S  S S E   S  S  S E  Q.
--------21-17--------------------------14---------------------16-----------|
--------------19-18--------10-------15-------------9-------18--------------|
------------------------11-------16-------------10------19-----------------|
---------------------12----------------------12---------------------4------|
--------------------------------------------------------------------4------|
--------------------------------------------------------------------4------|


  S S S S S S S S S S S S S S S S S S S S S S S S S S S S S S S S
------------------------------------------------------------------|
--------------------------------------------------------------7-8-|
------5-6-7-8-6-7-----5-6-7-8-6-7-------------------------7-8-----|
--4-4-------------4-4-----------------6-7-8-9-7-8-----7-8---------|
----------------------------------8-8-------------8-8-------------|
------------------------------------------------------------------|


  S S S S S S S S S S S S S S S S S S S S S S S S S S S S S S S S
------------------------------------------------------------------|
------------------------------------------------------------------|
--6-7-7-8-6-7-----6-7-7-8-6-7-------------------------------------|
--------------4-5-------------4-5-7-8-8-9-7-8-----7-8-8-9-7-8-----|
----------------------------------------------8-9-------------8-9-|
------------------------------------------------------------------|


                                         |---3---|       |---3---|   3   3
    E   E   E  E   E   E  E   E   E  E   E   E   E   E   E   E   E   E   E
|---------------------------------------------------10----------10--11--12--|
|------------------------------------9--10--12--13------12--13--------------|
|*------------------------9--10--11-----------------------------------------|
|*-------------9--11--12----------------------------------------------------|
|---9--11--12---------------------------------------------------------------|
|---------------------------------------------------------------------------|


   |---3---|   |---3---|   |---3---|   |---3---|   |--3--|   |---3---|  |---3---
   E   E   E   E   E   E   E   E   E   E   E   E   E  E  E   E   E   E  E   E
--13--12--11--10--------------14--13--12--11----------------12--11--10--9--------|
------------------13--12--11------------------11--10--9--8-----------------------|
---------------------------------------------------------------------------12--1-|
---------------------------------------------------------------------------------|
---------------------------------------------------------------------------------|
---------------------------------------------------------------------------------|


  |---3---|   |---3---|       |---3---|   |---3---|   |---3---|   |---3---|   |-
  E   E   E   E   E   E   E   E   E   E   E   E   E   E   E   E   E   E   E   E
-------------11--12--13--14------------------17--18--19--20--20--16--17--18--20-|
--------------------------------------------------------------------------------|
--9--10--11------------------13--14--15--16-------------------------------------|
--------------------------------------------------------------------------------|
--------------------------------------------------------------------------------|
--------------------------------------------------------------------------------|


   |---3---|   |---3---|   |---3---|   |---3---|   |---3---|   |---3---|   |---3
   E   E   E   E   E   E   E   E   E   E   E   E   E   E   E   E   E   E   E   E
--18--17--16--18--17--16--15--17--16--15--14--16--15--14--13--12--13--14--15--16-|
---------------------------------------------------------------------------------|
---------------------------------------------------------------------------------|
---------------------------------------------------------------------------------|
---------------------------------------------------------------------------------|
---------------------------------------------------------------------------------|


  |--3--|  |--3--|   |--3--|   |--3--|
  E  E  E  E  E  E   E  E  E   E  E  E
----------------------------------------|
----------------------------------------|
----------------------------------------|
-------------------------------------9--|
--9--------9--------11--------12--------|
-----0--0-----0--0------0--0------0-----|


   |--3--|   |--3-| |--3--|
   E  E  E   S  S S S  S  S S  S S T  S  S  S
----------------------------------------------|
----------------------------------------------|
----------------------------------------------|
--12--------12-11-9-9---------12-----14-12-11-|
----------------------12-11-9-----------------|
------0--0-----------------------0------------|


   |--3--|  |--3--|   |--3--|   |---3--|
   E  E  E  E  E  E   E  E  E   E  E   E
------------------------------------------|
------------------------------------------|
------------------------------------------|
------------9--------11--------12-----14--|
--12--------------------------------------|
------0--0-----0--0------0--0------0------|


   |--3--|  |--3--|           |--3--|  |--3--|
   S  S  S  S  S  S  S. S. S  S  S  S  S  S  S  S. S. S.
--------------------16-17-19-------------------17-19-21-|
-----------15-17-19-------------------17-19-21----------|
--14-16-18-------------------16-18-19-------------------|
--------------------------------------------------------|
--------------------------------------------------------|
--------------------------------------------------------|


    |--3--|  |--3--|  |--3--|  |--3--|     |--3--|  |--3--|  |--3--|  |--3--|
    E  E  E  E  E  E  E  E  E  E  E  E     E  E  E  E  E  E  E  E  E  E  E  E
|---------------------------------------|--------------------------------------|
|---------------------------------------|--------------------------------------|
|*--------------------------------------|--------------------------------------|
|*--4--4--4--4--4--4--4--4--4--4--4--4--|--4--4--4--4--4--4--4--4--4--4--4--4--|
|---4--4--4--4--4--4--4--4--4--4--4--4--|--5--5--5--5--5--5--5--5--5--5--5--5--|
|---4--4--4--4--4--4--4--4--4--4--4--4--|--------------------------------------|


  |--3--|  |--3--|  |--3--|  |--3--|     |--3--|  |--3--|  |--3--|  |--3--|
  E  E  E  E  E  E  E  E  E  E  E  E     E  E  E  E  E  E  E  E  E  E  E  E
--------------------------------------|---------------------------------------||
--------------------------------------|---------------------------------------||
--------------------------------------|--------------------------------------*||
--6--6--6--6--6--6--6--6--6--6--6--6--|--6--6--6--6--6--6--6--6--6--6--6--6--*||
--7--7--7--7--7--7--7--7--7--7--7--7--|--4--4--4--4--4--4--4--4--4--4--4--4---||
--------------------------------------|---------------------------------------||


Duration Legend
---------------
W - whole
H - half
Q - quarter
E - 8th
S - 16th
T - 32nd
X - 64th
. - note dotted
|-n-|  - n-tuplets


Tablature Legend
----------------
L - tied note
x - dead note
g - grace note
(n) - ghost note
> - accentuded note
NH - natural harmonic
AH - artificial harmonic
TH - tapped harmonic
SH - semi harmonic
PH - pitch harmonic
h - hammer on
p - pull off
b - bend
br - bendRelease
pb - preBend
pbr - preBendRelease
brb - bendReleaseBend
\n/ - tremolo bar dip
\n - tremolo bar dive
-/n - tremolo bar Release up
/n\ - tremolo bar inverted dip
/n - tremolo bar return
-\n - tremolo bar Release down
S - shift slide
s - legato slide
/ -  slide into from below or out of upwards
\ -  slide into from above or out of downwards
~ - vibrato
W - wide vibrato
tr - trill
TP - tremolo picking
T - tapping
S - slap
P - pop
< - fade in
^ - brush up
v - brush down
comments
We did not receive enough feedback on this tab! Please rate:
print report bad tab
1 2 3 4 5
I want to post or [tab]
guest
You may want to rate the tab now too:
select rating
Please do not post tabs as comments. Select "correction" instead!