Oops, an error
Loading. Please wait.

Self Portraits Of The Instincts Tab

ver2
ver2

Whole song

Interactive

More versions @911Tabs.com
497 views 1 this week
no commentswrite comment
1 2 3 4 5
please rate
Autoscroll
+/-
esc
set tempo
stop
Contributor
Difficulty
Tuning
intermediate
C G C F A D
WARNING: You are trying to view
                                    content from Ultimate-Guitar.com
                                    in an unauthorized application,
                                    which is prohibited.

                                    Please use an official Ultimate
                                    Guitar Tabs application for iPhone,
                                    iPad or Android to access legitimate
                                    chords, guitar, bass, and drum tabs
                                    from Ultimate-Guitar.com database.

                                    Type "ultimate guitar tabs" in Apple
                                    App Store's or Android Market's
                                    search to find the application.
         Self Portraits Of The Instincts                         
              The Human Abstract

Tab By : Rylaxit
Exported in GP5



     S S S S S S S S S S S S S S S S  
D||----------------------------------|
A||----------------------------------|
F||----------------------------------|
C||----------------------------------|
G||------------4-5-4-2---------------|
C||--0-0-4-3-0---------4-3-0-4-3-0-6-|


                 |--3--|  |--3--|  |--3--|  |--3--|    
  S S S S S S S  S  S  S  S  S  S  S  S  S  S  S  S S  
----------------21-17---------------------------------|
----------------------19------------------------------|
-------------------------18----------------------18---|
------------0-3-------------19-------------16-19------|
-------------------------------21-------16------------|
--0-0-6-4-0-----------------------16-19---------------|


  S S S S S S S S S S S S S S S S    S S S S S S S S S S S S S S S S  
----------------------------------|----------------------------------|
----------------------------------|----------------------------------|
----------------------------------|----------------------------------|
----------------------------------|------------3---4-----------------|
--2-----0---------------5-4-2-4-5-|----2-4-5-----------5-4-2---0-----|
----0-0---0-0-6-7-4-3-0-----------|--0-------0---0---0-------0---0---|


  PM PM PM PM PM PM PM                                               
  |--3--|  |--3--|                      |--3--|                      
  E  E  E  E  E  E  H           S S S S S  S  S S S S S S S S S S S  
-----------------------------|--------------------------------------|
-----------------------------|--------------------------------------|
-----------------------------|--------------------------------------|
--7--6--3--7--6--3--4--------|--4---4---4h-6h-7-----7---4-6---4-3-0-|
--7--7--4--7--7--4--4--------|--------------------------------------|
--7--6--3--7--6--3--4--------|----4---4---------4-4---4-----4-------|


                                            PM PM    PM              
          |--3--|                                                    
  S S S S S  S  S S S S  S S S  S S S  S    E  E  E  E  E  E  E  E   
-----------------------------------------|--------------------------|
-----------------------------------------|--------------------------|
-----------------------------------------|--------------------------|
--3---3---3h-4h-6-----3h-4---3h-4---4p-3-|--4--3-----4-----0-----3--|
-----------------------------------------|--5--4-----5-----0-----5--|
----3---3---------3-3------3------3------|--4--3-----4-----0-----3--|


                             PM                                            
  E  E  E  E  E  E  E  E     E  E  E  E  E  E  E  E     E  E  E  E  E  E   
--------------------------|--------------------------|--------------------|
--------------------------|--------------------------|--------------------|
--------------------------|--------------------------|--------------------|
--4--3-----3-----4-----4--|--3-----4-----0--3-----4--|--3-----3-----4-----|
--5--4-----5-----5-----5--|--4-----5-----0--5-----5--|--4-----5-----5-----|
--4--3-----3-----4-----4--|--3-----4-----0--3-----4--|--3-----3-----4-----|


    |--3--|   |--3--|  |--3--|   |--3--|   
    E  E  E   E  E  E  E  E  E   E  E  E   
|----------------------------7--10--------|
|---7--0--9--10--------0--7---------7-----|
|*---------------7---------------------7--|
|*------------------7---------------------|
|-----------------------------------------|
|-----------------------------------------|


   |--3--|   |--3--|  |--3--|  |--3--|                         
   E  E  E   E  E  E  E  E  E  E  E  E       W                 
--10--------10--------9--------7---------||-------------------|
------7---------7--------7--------7------||-------------------|
---------7---------7--------7--------7--*||-------------------|
----------------------------------------*||-------------------|
-----------------------------------------||-------------------|
-----------------------------------------||-------------------|


                      |-3| |3|  |--3--|  |--3--|  |--3--|   
  W                   E  S S E  E  E  E  E  E  E  E  E  E   
-------------------|---------------------------------------|
-------------------|---------------------------------------|
-------------------|------------------------------------6--|
-------------------|------------------4--7--6--4--6--4-----|
-------------------|---------------4-----------------------|
-------------------|--4--4-4-4--4--------------------------|


  |-3| |3|  |--3--|  |----3---|  |----3---|   
  E  S S E  E  E  E  S  S  E  E  S  S  E  E   
---------------------------------------------|
---------------------------------------------|
---------------------------------6h-7p-6-----|
------------7-----6--3h-4p-3--------------6--|
---------------------------------------------|
--0--0-0-0-----0--------------0--------------|


  |-3| |3|  |--3--|  |--3--|  |--3--|   
  E  S S E  E  E  E  E  E  E  E  E  E   
---------------------------------------|
---------------------------------------|
------------------------------------6--|
------------------4--7--6--4--6--4-----|
---------------4-----------------------|
--4--4-4-4--4--------------------------|


  |-3| |3|  |--3--|  |----3---|  |----3---|   
  E  S S E  E  E  E  S  S  E  E  S  S  E  E   
---------------------------------------------|
---------------------------------------------|
---------------------------------------------|
------------7-----6--3h-4p-3-----------------|
---------------------------------4h-5p-4--2--|
--0--0-0-0-----0--------------0--------------|


  |--3--|  |--3--|   |--3--|   |--3--|   
  E  E  E  E  E  E   E  E  E   E  E  E   
----------------------------------------|
----------------------------------------|
----------------------------------------|
-------------------------------------9--|
--9--------9--------11--------12--------|
-----0--0-----0--0------0--0------0-----|


   |--3--|   |--3-| |--3--| |---3--|   |---3---|   
   E  E  E   S  S S S  S  S E   E  E   E   E   E   
--------------------------------------------------|
--------------------------------------------------|
--------------------------------------------------|
--12--------12-11-9-9----------12-----14--12--11--|
----------------------12-11-9---------------------|
------0--0-------------------------0--------------|


   |--3--|  |--3--|   |--3--|   |---3--|   
   E  E  E  E  E  E   E  E  E   E  E   E   
------------------------------------------|
------------------------------------------|
------------------------------------------|
------------9--------11--------12-----14--|
--12--------------------------------------|
------0--0-----0--0------0--0------0------|


   |--3--|  |--3--|  |---3---|   |--3--|  |--3--|  |---3---|   
   S  S  S  S  S  S  E   E   E   S  S  S  S  S  S  E   E   E   
--------------------16--17--19--------------------17--19--21--|
-----------15-17-19----------------------17-19-21-------------|
--14-16-18----------------------16-18-19----------------------|
--------------------------------------------------------------|
--------------------------------------------------------------|
--------------------------------------------------------------|


  |--3--|  |--3--|  |--3--|  |--3--|     |--3--|  |--3--|  |--3--|  |--3--|   
  E  E  E  E  E  E  E  E  E  E  E  E     E  E  E  E  E  E  E  E  E  E  E  E   
--------------------------------------|--------------------------------------|
--------------------------------------|--------------------------------------|
--------------------------------------|--------------------------------------|
--4--4--4--4--4--4--4--4--4--4--4--4--|--4--4--4--4--4--4--4--4--4--4--4--4--|
--4--4--4--4--4--4--4--4--4--4--4--4--|--5--5--5--5--5--5--5--5--5--5--5--5--|
--4--4--4--4--4--4--4--4--4--4--4--4--|--0--0--0--0--0--0--0--0--0--0--0--0--|


  |--3--|  |--3--|  |--3--|  |--3--|     |--3--|  |--3--|  |--3--|  |--3--|   
  E  E  E  E  E  E  E  E  E  E  E  E     E  E  E  E  E  E  E  E  E  E  E  E   
--------------------------------------|--------------------------------------|
--------------------------------------|--------------------------------------|
--------------------------------------|--------------------------------------|
--6--6--6--6--6--6--6--6--6--6--6--6--|--6--6--6--6--6--6--6--6--6--6--6--6--|
--7--7--7--7--7--7--7--7--7--7--7--7--|--4--4--4--4--4--4--4--4--4--4--4--4--|
--------------------------------------|--------------------------------------|


     PM PM PM                      PM PM  
  |-3|  |-3|  |--3--|  |--3--|  |--3--|   
  E  S  S  E  E  E  E  E  E  E  E  E  E   
-----------------------------------------|
-----------------------------------------|
-----------------------------------------|
--4-----------4--4--4--4--4--4--4--------|
--4-----------4--4--4--4--4--4--4--------|
--4--4--4--4--4--4--4--4--4--4--4--4--4--|


  |--3--|  |--3--|  |--3--|  |--3--|     |--3--|  |--3--|  |--3--|  |--3--|   
  E  E  E  E  E  E  E  E  E  E  E  E     E  E  E  E  E  E  E  E  E  E  E  E   
--------------------------------------|--------------------------------------|
--------------------------------------|--------------------------------------|
--------------------------------------|--------------------------------------|
--4--4--4--4--4--4--4--4--4--4--4--4--|--6--6--6--6--6--6--6--6--6--6--6--6--|
--5--5--5--5--5--5--5--5--5--5--5--5--|--7--7--7--7--7--7--7--7--7--7--7--7--|
--0--0--0--0--0--0--0--0--0--0--0--0--|--------------------------------------|


  |--3--|  |--3--|  |--3--|  |--3--|                          
  E  E  E  E  E  E  E  E  E  E  E  E     E  T T T T H         
--------------------------------------|----------------------|
--------------------------------------|----------------------|
--------------------------------------|----------------------|
--6--6--6--6--6--6--6--6--6--6--6--6--|--4----------4--------|
--4--4--4--4--4--4--4--4--4--4--4--4--|--5----------5--------|
--------------------------------------|-----0-0-0-0----------|


  S S  S  S S  S  S S  S  S S  S  S  S  S  S  S  S  S S  S  S  S S S  S  S S  
------------------------------------12------------------12---------9---------|
---------------------------------------10------------------------------------|
--------------13------------9-11----------11----------9----11--------11------|
-----------------11---12-12------12----------11-11-12---------11-9------11-9-|
--9-9-11-12-9-------9--------------------------------------------------------|
-----------------------------------------------------------------------------|


  S S  S  S S  S  S S  S  S S  S  S  S  S  S  S  S  S S  S  S  S S S  S  S S  
------------------------------------12------------------12---------9---------|
---------------------------------------10------------------------------------|
--------------13------------9-11----------11----------9----11--------11------|
-----------------11---12-12------12----------11-11-12---------11-9------11-9-|
--9-9-11-12-9-------9--------------------------------------------------------|
-----------------------------------------------------------------------------|


   S  S  S  S  S  S  S  S  S  S  S  S  S  S  S  S  S  S  S  S  S  S  S  S  S  S 
-----------------------------------------14-------------------14----------11----
--------------------------------------------12----------------------------------
-----------------15-------------11-13----------13----------11----13----------13-
--------------------13----14-14-------14----------13-13-14----------13-11-------
--11-11-13-14-11-------11-------------------------------------------------------
--------------------------------------------------------------------------------


   S  S  S  S  S  S  S  S  S  S  S  S  S  S  S  S  S  S  S  S  S  S  S  S  S  S 
-----------------------------------------14-------------------14----------11----
--------------------------------------------12----------------------------------
-----------------15-------------11-13----------13----------11----13----------13-
--------------------13----14-14-------14----------13-13-14----------13-11-------
--11-11-13-14-11-------11-------------------------------------------------------
--------------------------------------------------------------------------------


  S S S S S S S S S S S S S S T T S S S S S S S  S S S  S S S  
--------------------------------------------------------------|
--------------------------------------------------------------|
------------------------------------------------12-9----------|
------------------------------3-7-3-0---7-3------------11---8-|
--8-4---8-7---8-4---0-4-5-4-0---------0-----0-0------0----0---|
------0-----0-----0-------------------------------------------|


   S S S S S S S S S S S S S S S S T T S S S S S S S  S S S  S  
---------------------------------------------------------------|
---------------------------------------------------------------|
-----------------------------------------------------12-9------|
-----------------------------------3-7-3-0---7-3------------11-|
--10---8-4---8-7---8-4---0-4-5-4-0---------0-----0-0------0----|
-----0-----0-----0-----0---------------------------------------|


  S S  S S S S S S S S S S S S S S S S T T S S S S S S S  S S  
--------------------------------------------------------------|
--------------------------------------------------------------|
---------------------------------------------------------12-9-|
----8----------------------------------3-7-3-0---7-3---0------|
--0---10---8-4---8-7---8-4---0-4-5-4--------------------------|
---------0----------------------------------------------------|


  S  S S S  S S S S S S S S S S S S S S S S T T S S S S S S S  
--------------------------------------------------------------|
--------------------------------------------------------------|
--------------------------------------------------------------|
----11---8----------------------------------3-7-3-0---7-3---0-|
-----------10---8-4---8-7---8-4---0-4-5-4---------------------|
--------------------------------------------------------------|


   S S S  S S S  S S S S S S S S S S S S S S   E   Q    E   
-----------------------------------------------------------|
-------------------------------------------6-<>9\----------|
--12-9-----------------------------------7-----------------|
---------11---8------0-3-7-0-6-9-0-7-6-9-------------------|
----------------10-----------------------------------------|
-----------------------------------------------------------|


   |--3--|  |--3--|  |---3---|   |--3--|  |--3--|  |---3---|   
   S  S  S  S  S  S  E   E   E   S  S  S  S  S  S  E   E   E   
--------------------16--17--19--------------------17--19--21--|
-----------15-17-19----------------------17-19-21-------------|
--14-16-18----------------------16-18-19----------------------|
--------------------------------------------------------------|
--------------------------------------------------------------|
--------------------------------------------------------------|


  |--3--|  |--3--|  |--3--|  |--3--|     |--3--|  |--3--|  |--3--|  |--3--|   
  E  E  E  E  E  E  E  E  E  E  E  E     E  E  E  E  E  E  E  E  E  E  E  E   
--------------------------------------|--------------------------------------|
--------------------------------------|--------------------------------------|
--------------------------------------|--------------------------------------|
--4--4--4--4--4--4--4--4--4--4--4--4--|--4--4--4--4--4--4--4--4--4--4--4--4--|
--4--4--4--4--4--4--4--4--4--4--4--4--|--5--5--5--5--5--5--5--5--5--5--5--5--|
--4--4--4--4--4--4--4--4--4--4--4--4--|--0--0--0--0--0--0--0--0--0--0--0--0--|


  |--3--|  |--3--|  |--3--|  |--3--|     |--3--|  |--3--|  |--3--|  |--3--|   
  E  E  E  E  E  E  E  E  E  E  E  E     E  E  E  E  E  E  E  E  E  E  E  E   
--------------------------------------|--------------------------------------|
--------------------------------------|--------------------------------------|
--------------------------------------|--------------------------------------|
--6--6--6--6--6--6--6--6--6--6--6--6--|--6--6--6--6--6--6--6--6--6--6--6--6--|
--7--7--7--7--7--7--7--7--7--7--7--7--|--4--4--4--4--4--4--4--4--4--4--4--4--|
--------------------------------------|--------------------------------------|


     PM PM PM                      PM PM  
  |-3|  |-3|  |--3--|  |--3--|  |--3--|   
  E  S  S  E  E  E  E  E  E  E  E  E  E   
-----------------------------------------|
-----------------------------------------|
-----------------------------------------|
--4-----------4--4--4--4--4--4--4--------|
--4-----------4--4--4--4--4--4--4--------|
--4--4--4--4--4--4--4--4--4--4--4--4--4--|


  |--3--|  |--3--|  |--3--|  |--3--|     |--3--|  |--3--|  |--3--|  |--3--|   
  E  E  E  E  E  E  E  E  E  E  E  E     E  E  E  E  E  E  E  E  E  E  E  E   
--------------------------------------|--------------------------------------|
--------------------------------------|--------------------------------------|
--------------------------------------|--------------------------------------|
--4--4--4--4--4--4--4--4--4--4--4--4--|--6--6--6--6--6--6--6--6--6--6--6--6--|
--5--5--5--5--5--5--5--5--5--5--5--5--|--7--7--7--7--7--7--7--7--7--7--7--7--|
--0--0--0--0--0--0--0--0--0--0--0--0--|--------------------------------------|


  |--3--|  |--3--|  |--3--|  |--3--|                      
  E  E  E  E  E  E  E  E  E  E  E  E     E  S S H         
--------------------------------------|------------------|
--------------------------------------|------------------|
--------------------------------------|------------------|
--6--6--6--6--6--6--6--6--6--6--6--6--|--4------4--------|
--4--4--4--4--4--4--4--4--4--4--4--4--|--5------5--------|
--------------------------------------|-----0-0----------|


                           W                               
   |--3--|  |--3--|  |---------3--------|  |--3--|  3      
   S  S  S  S  S  S  S  S  H         S  S  S  S  S  S S X  
--22-16-13-22-13-14-22-13-10------------------------------|
---------------------------------------------12-14-15-----|
------------------------------------11-13-14--------------|
----------------------------------------------------------|
----------------------------------------------------------|
----------------------------------------------------------|


         |--3--|  |--3--|        |---3--|  |---3--|  
  E  E   S  S  S  S  S  S E  E   S   S  S  S   S  S  
--------13-14-16-14-16-17-------22p-19--------------|
---------------------------------------21-----------|
------------------------------------------22p-19----|
-------------------------------------------------21-|
----------------------------------------------------|
----------------------------------------------------|


                  W                           
         |--3--|      |--3--|     |--3--|     
  E  E   S  S  S  E   S  S  S E   S  S  S E   
--------21-17--------------------------14----|
--------------19-18--------10-------15-------|
------------------------11-------16----------|
---------------------12----------------------|
---------------------------------------------|
---------------------------------------------|


   |--3-|     |--3--|                                                 
   S  S S E   S  S  S E  H           S S S S S S S S S S S S S S S S  
-------------------16-------------|----------------------------------|
--------9-------18----------------|----------------------------------|
-----10------19-------------------|------5-6-7-8-6-7-----5-6-7-8-6-7-|
--12---------------------4--------|--4-4-------------4-4-------------|
-------------------------4--------|----------------------------------|
-------------------------4--------|----------------------------------|


  S S S S S S S S S S S S S S S S    S S S S S S S S S S S S S S S S  
----------------------------------|----------------------------------|
------------------------------7-8-|----------------------------------|
--------------------------7-8-----|--6-7-7-8-6-7-----6-7-7-8-6-7-----|
------6-7-8-9-7-8-----7-8---------|--------------4-5-------------4-5-|
--8-8-------------8-8-------------|----------------------------------|
----------------------------------|----------------------------------|


  S S S S S S S S S S S S S S S S  
----------------------------------|
----------------------------------|
----------------------------------|
--7-8-8-9-7-8-----7-8-8-9-7-8-----|
--------------8-9-------------8-9-|
----------------------------------|


                               |--3--|  |-3-|  |--3--|  
    S  S  S S  S  S S  S  S S  S  S  S  E   S  S  S  S  
|--------------------------------------10--------10-11-|
|---------------------------9-10-12-13-----12-13-------|
|*------------------9-10-11----------------------------|
|*----------9-11-12------------------------------------|
|---9-11-12--------------------------------------------|
|------------------------------------------------------|


   |--3--|  |--3--|  |--3--|  |--3--|  |--3-| |--3--|  |--3-|  |--3-|  
   S  S  S  S  S  S  S  S  S  S  S  S  S  S S S  S  S  S S  S  S  S S  
--12-13-12-11-10----------14-13-12-11-----------12-11-10-9------------|
-----------------13-12-11-------------11-10-9-8-----------------------|
-----------------------------------------------------------12-11-10-9-|
----------------------------------------------------------------------|
----------------------------------------------------------------------|
----------------------------------------------------------------------|


  |--3-|  |--3--|  |--|   |--3--|  |--3--|  |--|   |--3--|  |--3--|  
  S S  S  S  S  S  S  E   S  S  S  S  S  S  S  E   S  S  S  S  S  S  
------------11-12-13-14--------------17-18-19-20--20-16-17-18-20-19-|
--------------------------------------------------------------------|
--8-9-10-11--------------13-14-15-16--------------------------------|
--------------------------------------------------------------------|
--------------------------------------------------------------------|
--------------------------------------------------------------------|


   |--3--|  |--3--|  |--3--|  |--3--|  |--3--|  |--3--|  |--3--|  |--3--|    
   S  S  S  S  S  S  S  S  S  S  S  S  S  S  S  S  S  S  S  S  S  S  S  S    
--18-17-19-18-17-16-18-17-16-15-17-16-15-14-16-15-14-13-12-13-14-15-16-17--||
---------------------------------------------------------------------------||
--------------------------------------------------------------------------*||
--------------------------------------------------------------------------*||
---------------------------------------------------------------------------||
---------------------------------------------------------------------------||


  |--3--|  |--3--|   |--3--|   |--3--|   
  E  E  E  E  E  E   E  E  E   E  E  E   
----------------------------------------|
----------------------------------------|
----------------------------------------|
-------------------------------------9--|
--9--------9--------11--------12--------|
-----0--0-----0--0------0--0------0-----|


   |--3--|   |--3-| |--3--| |---3--|   |---3---|   
   E  E  E   S  S S S  S  S E   E  E   E   E   E   
--------------------------------------------------|
--------------------------------------------------|
--------------------------------------------------|
--12--------12-11-9-9----------12-----14--12--11--|
----------------------12-11-9---------------------|
------0--0-------------------------0--------------|


   |--3--|  |--3--|   |--3--|   |---3--|   
   E  E  E  E  E  E   E  E  E   E  E   E   
------------------------------------------|
------------------------------------------|
------------------------------------------|
------------9--------11--------12-----14--|
--12--------------------------------------|
------0--0-----0--0------0--0------0------|


   |--3--|  |--3--|  |---3---|   |--3--|  |--3--|  |---3---|   
   S  S  S  S  S  S  E   E   E   S  S  S  S  S  S  E   E   E   
--------------------16--17--19--------------------17--19--21--|
-----------15-17-19----------------------17-19-21-------------|
--14-16-18----------------------16-18-19----------------------|
--------------------------------------------------------------|
--------------------------------------------------------------|
--------------------------------------------------------------|


  |--3--|  |--3--|  |--3--|  |--3--|     |--3--|  |--3--|  |--3--|  |--3--|   
  E  E  E  E  E  E  E  E  E  E  E  E     E  E  E  E  E  E  E  E  E  E  E  E   
--------------------------------------|--------------------------------------|
--------------------------------------|--------------------------------------|
--------------------------------------|--------------------------------------|
--4--4--4--4--4--4--4--4--4--4--4--4--|--4--4--4--4--4--4--4--4--4--4--4--4--|
--4--4--4--4--4--4--4--4--4--4--4--4--|--5--5--5--5--5--5--5--5--5--5--5--5--|
--4--4--4--4--4--4--4--4--4--4--4--4--|--------------------------------------|


  |--3--|  |--3--|  |--3--|  |--3--|     |--3--|  |--3--|  |--3--|  |--3--|   
  E  E  E  E  E  E  E  E  E  E  E  E     E  E  E  E  E  E  E  E  E  E  E  E   
--------------------------------------|--------------------------------------|
--------------------------------------|--------------------------------------|
--------------------------------------|--------------------------------------|
--6--6--6--6--6--6--6--6--6--6--6--6--|--6--6--6--6--6--6--6--6--6--6--6--6--|
--7--7--7--7--7--7--7--7--7--7--7--7--|--4--4--4--4--4--4--4--4--4--4--4--4--|
--------------------------------------|--------------------------------------|


     PM PM PM                      PM PM  
  |-3|  |-3|  |--3--|  |--3--|  |--3--|   
  E  S  S  E  E  E  E  E  E  E  E  E  E   
-----------------------------------------|
-----------------------------------------|
-----------------------------------------|
--4-----------4--4--4--4--4--4--4--------|
--4-----------4--4--4--4--4--4--4--------|
--4--4--4--4--4--4--4--4--4--4--4--4--4--|


  |--3--|  |--3--|  |--3--|  |--3--|     |--3--|  |--3--|  |--3--|  |--3--|   
  E  E  E  E  E  E  E  E  E  E  E  E     E  E  E  E  E  E  E  E  E  E  E  E   
--------------------------------------|--------------------------------------|
--------------------------------------|--------------------------------------|
--------------------------------------|--------------------------------------|
--4--4--4--4--4--4--4--4--4--4--4--4--|--6--6--6--6--6--6--6--6--6--6--6--6--|
--5--5--5--5--5--5--5--5--5--5--5--5--|--7--7--7--7--7--7--7--7--7--7--7--7--|
--------------------------------------|--------------------------------------|


                          PM           
  |--3--|  |--3--|  |--3--|  |--3--|   
  E  E  E  E  E  E  E  E  E  E  E  E   
--------------------------------------|
--------------------------------------|
--------------------------------------|
--6--6--6--6--6--6--6--6-----6--L--L--|
--4--4--4--4--4--4--4--4-----7--L--L--|
--------------------------0-----------|


     PM PM PM PM          PM PM PM PM        
  |-3|  |-3|  |--3--|  |-3|  |-3|  |--3--|   
  E  S  S  E  E  E  E  E  S  S  E  E  E  E   
--------------------------------------------|
--------------------------------------------|
--------------------------------------------|
--4--------------4--4--4--------------4--4--|
--4--------------4--4--4--------------4--4--|
--4--4--4--4--4--4--4--4--4--4--4--4--4--4--|


     PM PM PM PM          PM PM PM PM        
  |-3|  |-3|  |--3--|  |-3|  |-3|  |--3--|   
  E  S  S  E  E  E  E  E  S  S  E  E  E  E   
--------------------------------------------|
--------------------------------------------|
--------------------------------------------|
--4--------------4--4--4--------------4--4--|
--5--5--5--5--5--5--5--5--5--5--5--5--5--5--|
--------------------------------------------|


     PM PM PM PM          PM PM PM PM        
  |-3|  |-3|  |--3--|  |-3|  |-3|  |--3--|   
  E  S  S  E  E  E  E  E  S  S  E  E  E  E   
--------------------------------------------|
--------------------------------------------|
--------------------------------------------|
--6--------------6--6--6--------------6--6--|
--7--7--7--7--7--7--7--7--7--7--7--7--7--7--|
--------------------------------------------|


  |--3--|  |--3--|  |--3--|  |--3--|                        
  E  E  E  E  E  E  E  E  E  E  E  E     W                  
--------------------------------------|-------------------||
--------------------------------------|-------------------||
--------------------------------------|-------------------||
--6--6--6--6--6--6--6--6--6--6--6--6--|--4----------------||
--4--4--4--4--4--4--4--4--4--4--4--4--|--5----------------||
--------------------------------------|-------------------||




Duration Legend
---------------
W - whole
H - half
Q - quarter
E - 8th
S - 16th
T - 32nd
X - 64th
. - note dotted
|-n-|  - n-tuplets


Tablature Legend
----------------
L - tied note
x - dead note
g - grace note
(n) - ghost note
> - accentuded note
NH - natural harmonic
AH - artificial harmonic
TH - tapped harmonic
SH - semi harmonic
PH - pitch harmonic
h - hammer on
p - pull off
b - bend
br - bendRelease
pb - preBend
pbr - preBendRelease
brb - bendReleaseBend
\n/ - tremolo bar dip
\n - tremolo bar dive
-/n - tremolo bar Release up
/n\ - tremolo bar inverted dip
/n - tremolo bar return
-\n - tremolo bar Release down
S - shift slide
s - legato slide
/ -  slide into from below or out of upwards
\ -  slide into from above or out of downwards
~ - vibrato
W - wide vibrato
tr - trill
TP - tremolo picking
T - tapping
S - slap
P - pop
< - fade in
^ - brush up
v - brush down
comments
We did not receive enough feedback on this tab! Please rate:
print report bad tab
1 2 3 4 5
I want to post or [tab]
guest
You may want to rate the tab now too:
select rating
Please do not post tabs as comments. Select "correction" instead!