Oops, an error
Loading. Please wait.

Vela Together We Await The Storm Tab

ver1
ver1

Intro

Whole song

Interactive

More versions @911Tabs.com
56,292 views 84 this week
19 commentsread comments
1 2 3 4 5
excellent!
x 19
Autoscroll
+/-
esc
set tempo
stop
Tuning
C G C F A D
Hey! There's an official Ultimate Guitar app which is ideal
for learning songs when you're away from computer. Get the app
WARNING: You are trying to view
                                    content from Ultimate-Guitar.com
                                    in an unauthorized application,
                                    which is prohibited.

                                    Please use an official Ultimate
                                    Guitar Tabs application for iPhone,
                                    iPad or Android to access legitimate
                                    chords, guitar, bass, and drum tabs
                                    from Ultimate-Guitar.com database.

                                    Type "ultimate guitar tabs" in Apple
                                    App Store's or Android Market's
                                    search to find the application.
#----------------------------------PLEASE NOTE---------------------------------#
#This file is the author's own work and represents their interpretation of the #
#song. You may only use this file for private study, scholarship, or research. #
#------------------------------------------------------------------------------#

Gtr I (C G C F A D) - 'Untitled'
Gtr II (C G C F A D) - 'Untitled'
Gtr III (C G C F A D) - 'Untitled'


    Q=140
   4/4
    Gtr I
||----------------------------------------------------||
||o--------------------------------------------------o||
||----------------------------------------------------||
||--0----(0)------------------------------------------||
||o-0----(0)--5--7--8--(8)-7-(7)-5h7p5---------------o||
||--0----(0)---------------------------8--------7-----||
|
|   Gtr II
||----------------------------------------------------||
||o--------------------------------------------------o||
||----------------------------------------------------||
||--0----(0)------------------------------------------||
||o-0----(0)--5--7--8--(8)-7-(7)-5h7p5---------------o||
||--0----(0)---------------------------8--------7-----||


||-------------------------------------------------------------------------|
||o------------------------------------------------------------------------|
||-------------------------------------------------------------------------|
||--0-------(0)------------------------------------------------------------|
||o-0-------(0)---5-7--8---(8)-7---(7)-5h7p5-------------------------------|
||--0-------(0)------------------------------------------------------------|
|
||-------------------------------------------------------------------------|
||o------------------------------------------------------------------------|
||-------------------------------------------------------------------------|
||--0-------(0)---3-5--7---(7)-5---(5)-3h5p3-------------------------------|
||o-0-------(0)------------------------------------------------------------|
||--0-------(0)------------------------------------------------------------|
|
|   Gtr III
||-------------------------------------------------------------------------|
||o------------------------------------------------------------------------|
||-------------------------------------------------------------------------|
||-------------------------------------------------------------------------|
||o-0-0-0-0-----0-0-0--0-0-----0-0--0--0---0-0-0-0--0-0-0--0-0--0-0-0-0----|
||--0-0-0-0-----0-0-0--0-0-----0-0--0--0---0-0-0-0--0-0-0--0-0--0-0-0-0----|


|---------------------------------------------------------------||
|--------------------------------------------------------------o||
|---------------------------------------------------------------||
|---------------------------------------------------------------||
|--------------------------------------------------------------o||
|-8------------------------------7------------------------------||
|
|---------------------------------------------------------------||
|--------------------------------------------------------------o||
|---------------------------------------------------------------||
|---------------------------------------------------------------||
|-5------------------------------4-----------------------------o||
|---------------------------------------------------------------||
|
|---------------------------------------------------------------||
|--------------------------------------------------------------o||
|---------------------------------------------------------------||
|---------------------------------------------------------------||
|-8-8-8-8--8-8-8--8-8--8-8-8-8-7-7-7-7--7-7-7--7-7--7-7-7-7----o||
|-8-8-8-8--8-8-8--8-8--8-8-8-8-7-7-7-7--7-7-7--7-7--7-7-7-7-----||


||----------------------------------|------------------------------------|
||o---------------------------------|------------------------------------|
||----------------------------------|------------------------------------|
||--0--------------(0)--------------|------------------------------------|
||o-0--------------(0)------5---7---|-8-------(8)---7------(7)--5h7p5----|
||--0--------------(0)--------------|------------------------------------|
|
||----------------------------------|------------------------------------|
||o---------------------------------|------------------------------------|
||----------------------------------|------------------------------------|
||--0--------------(0)------3---5---|-7-------(7)---5------(5)--3h5p3----|
||o-0--------------(0)--------------|------------------------------------|
||--0--------------(0)--------------|------------------------------------|
|
||----------------------------------|------------------------------------|
||o---------------------------------|------------------------------------|
||----------------------------------|------------------------------------|
||----------------------------------|------------------------------------|
||o-0-0-0-0--0-0-0-----0-0--0-0-0-0-|-0-0-0-0-----0-0-0--0--0---0-0-0-0--|
||--0-0-0-0--0-0-0-----0-0--0-0-0-0-|-0-0-0-0-----0-0-0--0--0---0-0-0-0--|


|------------------------------|---------------------------------||
|------------------------------|--------------------------------o||
|------------------------------|---------------------------------||
|-8----------------------------|-7-------------------------------||
|------------------------------|--------------------------------o||
|------------------------------|---------------------------------||
|
|------------------------------|---------------------------------||
|------------------------------|--------------------------------o||
|-7----------------------------|-6-------------------------------||
|------------------------------|---------------------------------||
|------------------------------|--------------------------------o||
|------------------------------|---------------------------------||
|
|------------------------------|---------------------------------||
|------------------------------|--------------------------------o||
|------------------------------|---------------------------------||
|------------------------------|---------------------------------||
|-8-8-8-8--8-8-8--8-8--8-8-8-8-|-7-7-7-7--7-7-7--7-7--7-7-7-7---o||
|-8-8-8-8--8-8-8--8-8--8-8-8-8-|-7-7-7-7--7-7-7--7-7--7-7-7-7----||


||--10p5-------5-10p5-17p12----------12-17p12-|
||o------6---6--------------14----14----------|
||---------7-------------------14-------------|
||--------------------------------------------|
||o-------------------------------------------|
||--------------------------------------------|
|
||--------------------------------------------|
||o-------------------------------------------|
||--------------------------------------------|
||--------------------------------------------|
||o--0-0-0-0---0--0----7--7--7-----7--7--7--7-|
||---0-0-0-0---0--0----7--7--7-----7--7--7--7-|


|-9p6-------6-9p6-10p5-------5-10p5--|
|-----8---8------------6---6---------|
|-------9----------------7-----------|
|------------------------------------|
|------------------------------------|
|------------------------------------|
|
|------------------------------------|
|------------------------------------|
|------------------------------------|
|------------------------------------|
|-2-2-2-2---2-2----0-0-0---0-0--0-0--|
|-2-2-2-2---2-2----0-0-0---0-0--0-0--|


|-11p6-------6-11p6-10p5-------5-10p5-|
|------8---8-------------6---6--------|
|--------8-----------------7----------|
|-------------------------------------|
|-------------------------------------|
|-------------------------------------|
|
|-------------------------------------|
|-------------------------------------|
|-------------------------------------|
|-------------------------------------|
|--1-1-1-1---1--1----0-0-0---0-0--0-0-|
|--1-1-1-1---1--1----0-0-0---0-0--0-0-|


|-17p12----------12-17p12-13p9----------------------||
|-------14----14---------------11------------------o||
|----------14---------------------12-15-14-12-14----||
|---------------------------------------------------||
|--------------------------------------------------o||
|---------------------------------------------------||
|
|---------------------------------------------------||
|--------------------------------------------------o||
|---------------------------------------------------||
|---------------------------------------------------||
|--5--5--5--5-----5--5-----3-3--3-----0--0--0--0---o||
|--5--5--5--5-----5--5-----3-3--3-----0--0--0--0----||


                                PM
|-----------------|------------------|
|-----------------|------------------|
|-----------------|------------------|
|-----------------|------------------|
|-----------------|---------------13-|
|-----------------|-------------0----|
|
| PM|               PM  PM|
|-----------------|------------------|
|-----------------|------------------|
|-----------------|------------------|
|-----------------|---5--------------|
|-----7-8-4-5h7p5-|---------5-4------|
|-0-0-------------|-0---0-0----------|


                    PM|
|-----------------------|--------------------|
|-----------------------|--------------------|
|-----------------------|--------------------|
|-----------------------|--------------------|
|-12-10-12-10h12p10-----|-15---10h12p10\-8---|
|-------------------0-0-|----0---------------|
|
|-----------------------|--------------------|
|-----------------------|--------------------|
|-----------------------|--------------------|
|-----------------------|--------------------|
|-----------------------|--------------------|
|-----------------------|--------------------|


    PM|                PM     PM
||-----------------------------------|
||o----------------------------------|
||-----------------------------------|
||------------------------5----------|
||o------7--8-4-5h=7p5----------5-4--|
||--0-0----------------0----0-0------|
|
|   PM|                PM   PM|
||-----------------------------------|
||o----------------------------------|
||-----------------------------------|
||-----------------------------------|
||o-----10-12-7-8h10p8---13-----8-7--|
||--0-0----------------0----0-0------|


  PM                     PM|
|------------------------------------------------||
|-----------------------------------------------o||
|------------------------------------------------||
|------------------------------------------------||
|---10--8--7--8--7h=8p=7-----12----7h=8p=7\-5---o||
|-0----------------------0-0----0----------------||
|
| PM                     PM|    PM
|------------------------------------------------||
|-----------------------------------------------o||
|------------------------------------------------||
|------------------------------------------------||
|---13-12-10-12-10h12p10-----15---10h12p10\-8---o||
|-0----------------------0-0----0----------------||


    PM----------------------------------------------------------------|
||--------------------------------------------------------------------|
||o---------------------------------------------------------------o---|
||--------------------------------------------------------------------|
||--------------------------------------------------------------------|
||o-0-0-0-0-0-0---0-0--0-0--0-0-0--0-0-0-0-0-0---0-0--0-0--0-0-0--o---|
||--0-0-0-0-0-0---0-0--0-0--0-0-0--0-0-0-0-0-0---0-0--0-0--0-0-0------|
|
|   PM----------------------------------------------------------------|
||--------------------------------------------------------------------|
||o---------------------------------------------------------------o---|
||--------------------------------------------------------------------|
||--------------------------------------------------------------------|
||o-0-0-0-0-0-0---0-0--0-0--0-0-0--0-0-0-0-0-0---0-0--0-0--0-0-0--o---|
||--0-0-0-0-0-0---0-0--0-0--0-0-0--0-0-0-0-0-0---0-0--0-0--0-0-0------|


    PM|                      PM             PM
||--------------------------------------------|
||o-------------------------------------------|
||--------------------------------------------|
||---------------------------------5----------|
||o------7----8---4-5h=7p5--------------------|
||--0-0----------------------0-----------0--0-|
|
|   PM|                      PM          PM-|
||--------------------------------------------|
||o-------------------------------------------|
||--------------------------------------------|
||--------------------------------------------|
||o-----10---12---7-8h10p8--------13----------|
||--0-0----------------------0-----------0--0-|
|
|   PM------------------------------------------|
||----------------------------------------------|
||o---------------------------------------------|
||----------------------------------------------|
||----------------------------------------------|
||o-0-0--0-0--0-0----------0---0-----0-0--------|
||--0-0--0-0--0-0----------0---0-----0-0--------|


         PM                             PM--|
|---------------------------------------------|-----------------------------||
|---------------------------------------------|----------------------------o||
|---------------------------------------------|-----------------------------||
|---------------------------------------------|-----------------------------||
|-5---4------10----8----7--8--7h=8p=7---------|-12-------7h=8p===7\---5----o||
|--------0------------------------------0---0-|------0----------------------||
|
|        PM                             PM--|        PM
|---------------------------------------------|-----------------------------||
|---------------------------------------------|----------------------------o||
|---------------------------------------------|-----------------------------||
|---------------------------------------------|-----------------------------||
|-8---7------13---12---10-12-10h12p10---------|-15------10h12p==10\---8----o||
|--------0------------------------------0---0-|------0----------------------||
|
|------------------------------------------------------------------------------|
|---------------------------------------------|--------------------------------|
|---------------------------------------------|----------------------------o---|
|---------------------------------------------|--------------------------------|
|---------------------------------------------|--------------------------------|
|-0-0-0--0-0--0-0--0-0----------------0---0---|----0-0---0----0-----0------o---|
|-0-0-0--0-0--0-0--0-0----------------0---0---|----0-0---0----0-----0----------|


|--------------------------------------------------------------------------|
|--------------------------------------------------------------------------|
|----------12-------12-14---15----14-15---14---12--------------------------|
|-12-14-15----14-15-----------------------------------12-----14---15---7---|
|--------------------------------------------------------------------------|
|--------------------------------------------------------------------------|
|
|--------------------------------------------------------------------------|
|----------11-------11-13---15----13-15---13---11--------------------------|
|-10-12-14----12-14-----------------------------------10-----12---14---5---|
|--------------------------------------------------------------------------|
|--------------------------------------------------------------------------|
|--------------------------------------------------------------------------|
|
|  PM------|                   PM--------------------------------------------|
|----------------------------------------------------------------------------|
|----------------------------------------------------------------------------|
|--------------2-----2----2-------------------------------------2----2---2---|
|--------------3-----3----3-------------------------------------3----3---3---|
|--------------5-----5----5-------------------------------------5----5---5---|
|--0--0--0--0------------------0---0----0----0----0-0----0-0-----------------|


|-11p6--------6-11p6-18p15----------15-18p15-18p15----15----|
|------8----8--------------15----15----------------15-------|
|--------8--------------------15----------------------------|
|-----------------------------------------------------------|
|-----------------------------------------------------------|
|-----------------------------------------------------------|
|
|-----------------------------------------------------------|
|-----------------------------------------------------------|
|-----------------------------------------------------------|
|-----------------------------------------------------------|
|-----------------------------------------------------------|
|-----------------------------------------------------------|
|
|  PM----|                  PM--------------------------------|
|-------------------------------------------------------------|
|-------------------------------------------------------------|
|-----------8----8----8-----------------------------8---------|
|-----------8----8----8-----------------------------8---------|
|----------10---10---10----------------------------10---------|
|--1-1-1-1------------------1--1--1--1--1--1--1--1------------|


|-------------------------------------------------------------------------|
|-------------------------------------------------------------------------|
|----------12-------12-14---15---14-15---14---12--------------------------|
|-12-14-15----14-15----------------------------------12-----14---15---7---|
|-------------------------------------------------------------------------|
|-------------------------------------------------------------------------|
|
|-------------------------------------------------------------------------|
|----------11-------11-13---15---13-15---13---11--------------------------|
|-10-12-14----12-14----------------------------------10-----12---14---5---|
|-------------------------------------------------------------------------|
|-------------------------------------------------------------------------|
|-------------------------------------------------------------------------|
|
|  PM------|                   PM-------------------------------------------|
|---------------------------------------------------------------------------|
|---------------------------------------------------------------------------|
|--------------2-----2----2------------------------------------2----2---2---|
|--------------3-----3----3------------------------------------3----3---3---|
|--------------5-----5----5------------------------------------5----5---5---|
|--0--0--0--0------------------0--0----0----0----0-0----0-0-----------------|


|-11p6-------6-11p6-18p14----------14-18p14-18---------|
|------7---7--------------16----16---------------------|
|--------8-------------------15------------------------|
|------------------------------------------------------|
|------------------------------------------------------|
|------------------------------------------------------|
|
|------------------------------------------------------|
|------------------------------------------------------|
|------------------------------------------------------|
|------------------------------------------------------|
|------------------------------------------------------|
|------------------------------------------------------|
|
|------------------------------------------------------|
|------------------------------------------------------|
|--3-3-3-3-3-3--3-3--3--3--3--3--3--3--3--3--3---------|
|--4-4-4-4-4-4--4-4--4--4--4--4--4--4--4--4--4---------|
|--6-6-6-6-6-6--6-6--6--6--6--6--6--6--6--6--6---8\----|
|------------------------------------------------8\----|


|-||--------------------------18p15----------15-18p15-18p15----15----|
|-||o-16p11----------11-16p11-------15----15----------------15-------|
|-||--------12----12-------------------15----------------------------|
|-||-----------13----------------------------------------------------|
|-||o----------------------------------------------------------------|
|-||-----------------------------------------------------------------|
|
|      PM--------------------------------------------------------------|
|-||-------------------------------------------------------------------|
|-||o------------------------------------------------------------------|
|-||-------------------------------------------------------------------|
|-||-------------------------------------------------------------------|
|-||o--1--1--1--1--1--1--------1--1-----1--1-----1--1--1---------------|
|-||---1--1--1--1--1--1--------1--1-----1--1-----1--1--1---------------|


|-------------------------18p15----------15-18p15-|
|-16p11----------11-16p11-------15----15----------|
|-------12----12-------------------15-------------|
|----------13-------------------------------------|
|-------------------------------------------------|
|-------------------------------------------------|
|
|  PM-----------------------------------------------|
|---------------------------------------------------|
|---------------------------------------------------|
|---------------------------------------------------|
|---------------------------------------------------|
|--1--1--1--1--1--1--------------1--1-----1--1------|
|--1--1--1--1--1--1--------------1--1-----1--1------|


|-18p15----15-------------------------18p15-------|----15-18p15-18p15----15---|
|-------15----16p11----------11-16p11-------15----|-15----------------15------|
|-------------------12----12-------------------15-|---------------------------|
|----------------------13-------------------------|---------------------------|
|-------------------------------------------------|---------------------------|
|-------------------------------------------------|---------------------------|
|
|-------|      PM---------------------------------------------------------------|
|-------------------------------------------------|-----------------------------|
|-------------------------------------------------|-----------------------------|
|-------------------------------------------------|-----------------------------|
|-------------------------------------------------|-----------------------------|
|--1--1--1-----1--1--1--1--1--1--------------1--1-|-----1--1-----1--1--1--------|
|--1--1--1-----1--1--1--1--1--1--------------1--1-|-----1--1-----1--1--1--------|


|-10p5-------5-10p5-17p13----------13-17p13-|-17p13----13--||----|
|------6---6--------------15----15----------|-------15----o||----|
|--------7-------------------14-------------|--------------||----|
|-------------------------------------------|--------------||----|
|-------------------------------------------|-------------o||----|
|-------------------------------------------|--------------||----|
|
|  PM--------------------------------------------------------------|
|-------------------------------------------|--------------||------|
|-------------------------------------------|-------------o||------|
|-------------------------------------------|--------------||------|
|-------------------------------------------|--------------||------|
|--0-0-0-0-0-0-------------0--0-----0--0----|--0--0--0----o||------|
|--0-0-0-0-0-0-------------0--0-----0--0----|--0--0--0-----||------|


|-10p5-------5-10p5-17p13----------13-17p13-|-17p13----13----|
|------6---6--------------15----15----------|-------15-------|
|--------7-------------------14-------------|----------------|
|-------------------------------------------|----------------|
|-------------------------------------------|----------------|
|-------------------------------------------|----------------|
|
|  PM----------------------------------------------------------|
|-------------------------------------------|------------------|
|-------------------------------------------|------------------|
|-------------------------------------------|------------------|
|-------------------------------------------|------------------|
|--0-0-0-0-0-0-------------0--0-----0--0----|--0--0--0---------|
|--0-0-0-0-0-0-------------0--0-----0--0----|--0--0--0---------|


  PM----|         PM----|           PM|         PM----------------------|
|---------------------------------|-------------------------------------|
|---------------------------------|-------------------------------------|
|---------------------------------|-------------------------------------|
|-----------3h7p3-----------3h7p3-|-------5h8p5-------5h8p5---2h5p2-----|
|---------5---------------5-------|-----7-----------7-------4-----------|
|-0-0-0-0---------0-0-0-0---------|-0-0---------0-0---------------------|
|
| PM----|         PM----|           PM|         PM----------------------|
|---------------------------------|-------------------------------------|
|---------------------------------|-------------------------------------|
|---------------------------------|-------------------------------------|
|-----------3h7p3-----------3h7p3-|-------5h8p5-------5h8p5---2h5p2-----|
|---------5---------------5-------|-----7-----------7-------4-----------|
|-0-0-0-0---------0-0-0-0---------|-0-0---------0-0---------------------|


  PM----|         PM----|           PM|         PM----------------------------|
|---------------------------------|-------------------------------------------|
|---------------------------------|-------------------------------------------|
|---------------------------------|-------------------------------------------|
|-----------3h7p3-----------3h7p3-|-------5h8p5--------8h11p8----11h14p11-----|
|---------5---------------5-------|-----7-----------10--------13--------------|
|-0-0-0-0---------0-0-0-0---------|-0-0---------0-0---------------------------|
|
| PM----|         PM----|           PM|         PM----------------------------|
|---------------------------------|-------------------------------------------|
|---------------------------------|-------------------------------------------|
|---------------------------------|-------------------------------------------|
|-----------3h7p3-----------3h7p3-|-------5h8p5--------8h11p8----11h14p11-----|
|---------5---------------5-------|-----7-----------10--------13--------------|
|-0-0-0-0---------0-0-0-0---------|-0-0---------0-0---------------------------|


  PM----|             PM--------------------|
|-------------------------------------------|
|-------------------------------------------|
|------------10-14-10------------10-14-10---|
|---------12------------------12------------|
|-------------------------------------------|
|-0-0-0-0-------------0-0-0-0---------------|
|
| PM----|             PM--------------------|
|-------------------------------------------|
|-------------------------------------------|
|-------------------------------------------|
|-------------3h=7p=3-------------3h=7p=3---|
|----------5-------------------5------------|
|-0-0-0-0-------------0-0-0-0---------------|


  PM|             PM|
|---------------------------------------------|
|---------------------------------------------|
|--------12h15p12--------12h15p12----9h12p9---|
|-----14--------------14----------11----------|
|---------------------------------------------|
|-0-0-------------0-0-------------------------|
|
| PM|             PM|
|---------------------------------------------|
|---------------------------------------------|
|---------------------------------------------|
|---------5h=8p=5---------5h=8p=5----2h=5p2---|
|------7---------------7-----------4----------|
|-0-0-------------0-0-------------------------|


  PM----|             PM--------------------|
|-------------------------------------------|
|-------------------------------------------|
|------------10h14p10------------10h14p10---|
|---------12------------------12------------|
|-------------------------------------------|
|-0-0-0-0-------------0-0-0-0---------------|
|
| PM----|             PM--------------------|
|-------------------------------------------|
|-------------------------------------------|
|-------------------------------------------|
|-------------3h=7p=3-------------3h=7p=3---|
|----------5-------------------5------------|
|-0-0-0-0-------------0-0-0-0---------------|


  PM|             PM|
|-----------------------------------------------|
|-----------------------------------------------|
|--------12h15p12--------15h18p15----18h21p18---|
|-----14--------------17----------20------------|
|-----------------------------------------------|
|-0-0-------------0-0---------------------------|
|
| PM|             PM|
|-----------------------------------------------|
|-----------------------------------------------|
|-----------------------------------------------|
|---------5h=8p=5---------8h11p=8----11h14p11---|
|------7--------------10----------13------------|
|-0-0-------------0-0---------------------------|


  PM----------------------------------------------------------------------|
|-------------------------------------------------------------------------|
|-------------------------------------------------------------------------|
|---------------------------------------------------------12p10p9p7-9-----|
|---------3-3---------3-3-----------------7-7-8-8-7-7-5-5-----------------|
|-----5-5---------5-5---------5-5-----5-5---------------------------------|
|-0-0---------0-0---------0-0-----0-0-------------------------------------|
|
|-----------------------------------------------------------------------|
|-----------------------------------------------------------------------|
|-----------------------------------------------------------------------|
|-----------------------------------------------------------------------|
|-----------------------------------------------------------------------|
|-----------------------------------------------------------------------|


|------------------------------------------------------------------------|
|------------------------------------------------------------------------|
|------------------------------------------------------------------------|
|------------------------------------------------------------------------|
|------------------------------------------------------------------------|
|------------------------------------------------------------------------|
|
| PM-----------------------------------------------------------------------|
|--------------------------------------------------------------------------|
|--------------------------------------------------------------------------|
|-----------------------------------------------------------9-10-9---------|
|------------------------------------------------------------------11------|
|-----4-4-7-7-----4-4-7-7-----4-4-----4-4-7-7-10-10-8-8-7-7----------------|
|-0-0---------0-0---------0-0-----0-0--------------------------------------|


||----------------------------------------------------------------------------------|
||o---------------------------------------------------------------------------------|
||------------------------------------------------------------------15-14-12-10-12--|
||----------7-7---------7-7-----------------11-11-12-12-11-11--8--8-----------------|
||o-----8-8---------8-8---------8-8-----8-8-----------------------------------------|
||--0-0---------0-0---------0-0-----0-0---------------------------------------------|
|
||----------------------------------------------------------------------------------|
||o---------------------------------------------------------------------------------|
||------------------------------------------------------------------12p10p=9p=7--9--|
||----------------------------------------------------------------------------------|
||o-----5-5-8-8-----5-5-8-8-----5-5-----5-5-12-12-13-13-12-12-10-10-----------------|
||--0-0---------0-0---------0-0-----0-0---------------------------------------------|


|---------------------------------------------------------------------------||
|--------------------------------------------------------------------------o||
|-----------------------------------------------------------12-14-12--9-----||
|---------5-5---------5-5-----------------5-5--8--8-7-7-5-5-----------------||
|-----7-7---------7-7---------7-7-----7-7----------------------------------o||
|-0-0---------0-0---------0-0-----0-0---------------------------------------||
|
|---------------------------------------------------------------------------||
|--------------------------------------------------------------------------o||
|------------------------------------------------------------9h10p=9--------||
|--------------------------------------------------------------------11-----||
|-----4-4-7-7-----4-4-7-7-----4-4-----4-4-7-7-10-10-8-8-7-7----------------o||
|-0-0---------0-0---------0-0-----0-0---------------------------------------||


                            T T T  T T  T T  T
|-------------------------|-----------------10------------------------|
|-------------------------|------------10-----------------------------|
|-------------------------|---7---10------7---------------------------|
|-------------------------|----------7--------------------------------|
|-------------------------|-5---8-------------------------------------|
|-------------------------|-------------------------------------------|
|
| PM----|       PM| ~~~~~   PM------------------------------------------|
|-------------------------|--------------------9------------------------|
|-------------------------|----------------------11-10-8----------------|
|-------------------------|------------------------------10-9-7---------|
|---------5h7p5-----------|-------------------------------------11------|
|-----4-4-----------8--7--|---------------------------------------------|
|-0-0-----------8-7-------|-0-0----0-0--0-------------------------------|
|
|                           PM------------------------------------------|
|-------------------------|---------------------------------------------|
|-------------------------|---------------------------------------------|
|-------------------------|---------------------------------------------|
|-------------------------|---------------------------------------------|
|-------------------------|---------------------------------------------|
|-------------------------|-0-0----0-0--0----0----0--0----0-0-0--0------|


  T T T T T T T  T
|--------------------------------------|
|-----------8---11---------------------|
|---6---9------------------------------|
|---------5---8------------------------|
|-4---7--------------------------------|
|--------------------------------------|
|
| PM-------------------------------------|
|------------------10-9------------------|
|-----------------------10-8-------------|
|----------------------------10-9-7------|
|-----------------------------------11---|
|----------------------------------------|
|-2-2-2-2---2-2--------------------------|
|
| PM-------------------------------------|
|----------------------------------------|
|----------------------------------------|
|----------------------------------------|
|----------------------------------------|
|----------------------------------------|
|-2-2-2-2---2-2-----2-2----2--2---2------|


  T  T  T  T  T  T  T  T  T  T  T  T  T  T  T
|---------------------------------------------------|
|---------------13----16----------------15-13\-11---|
|---11----14----------------12----15----------------|
|------------10----13----------------12-------------|
|-9----12----------------10----13-------------------|
|---------------------------------------------------|
|
| PM--------------------------------------------------|
|-----------------------------------------------------|
|-----------------------------------------------------|
|-----------------------------------------------------|
|-----------------------------------------------------|
|-----------------------------------------------------|
|-4--4-----4--4--4-----4-----5--5-----5--5--5---5-----|
|
|---------------------------------------------------|
|---------------------------------------------------|
|---------------------------------------------------|
|---------------------------------------------------|
|---------------------------------------------------|
|---------------------------------------------------|


   PM------------------------------------------------|
|----------------------------------------------------|
|----------------------------------------------------|
|----------------------------------------------------|
|----------------------------------------------------|
|----------------------------------------------------|
|--6--6-----6--6--6-----6-----7--7-----7--7--7---7---|
|
|  T  T  T  T  T  T  T  T  T  T  T  T  T  T  T
|--------------------------------------------------|
|----------------15----18----------------17-15\-14-|
|----13----16----------------14----18--------------|
|-------------12----15----------------14-----------|
|-11----14----------------12----16-----------------|
|--------------------------------------------------|


  T T T  T T  T T  T  T  T  T  T  T  T  T  T
|-----------------10---------------------------|
|------------10---------------------16----19---|
|---7---10------7-------14----17---------------|
|----------7---------------------13----16------|
|-5---8--------------12----15------------------|
|----------------------------------------------|
|
| PM----|       PM------|         PM-------------|
|------------------------------------------------|
|------------------------------------------------|
|------------------------------------------------|
|---------------------------1--------------------|
|----------0----3--3--3--3--3-----3--3-----------|
|-0-0-0--0-0-------------------------------------|


   T  T  T  T  T  T  T  T  T  T  T  T  T  T  T  T
|----------------------18----------------------15-|
|----------------18----------------------15-------|
|----15----19-------15-------12----15-------12----|
|-------------15----------------------12----------|
|-13----17----------------10----13----------------|
|-------------------------------------------------|
|
|  PM------|         PM------|         PM-----------|
|---------------------------------------------------|
|---------------------------------------------------|
|---------------------------------------------------|
|---------------------------------------------------|
|--------------8-----------------5------------------|
|--8--8--8--8--8-----5--5--5--5--5-----5--5---------|


   T  T  T  T  T  T  T  T  T  T  T  T  T  T  T  T
|----------------------15----17----15---------------|
|----------------17----------------------17---------|
|----14----18-------12----14----12-------------18---|
|-------------14----------------------14------------|
|-12----16----------------------------------16------|
|---------------------------------------------------|
|
|---------------------------------------------------|
|---------------------------------------------------|
|---------------------------------------------------|
|---------------------------------------------------|
|--7--7--7--7-----7--7-----7--7--7-----7--7--7--7---|
|--7--7--7--7-----7--7-----7--7--7-----7--7--7--7---|


   T  T  T  T  T  T  T  T  T  T  T  T  T  T  T  T
|----------------------15----17----15-------------|
|----------------17----------------------17-------|
|----14----18-------12----14----12-------------18-|
|-------------14----------------------14----------|
|-12----16----------------------------------16----|
|-------------------------------------------------|
|
|-------------------------------------------------|
|-------------------------------------------------|
|-------------------------------------------------|
|-------------------------------------------------|
|--7--7--7--7-----7--7-----7--7--7-----7--7--7--7-|
|--7--7--7--7-----7--7-----7--7--7-----7--7--7--7-|


  T T T T T T T T T T T T T T T T
|-----------6---------------5-------|
|-------8-------8-------6-------6---|
|---7---------------7-----2---------|
|-----5---3---5-------3-------3-----|
|-5---------------5-----------------|
|-----------------------------------|
|
| PM----------------------------------|
|-------------------------------------|
|-------------------------------------|
|-------------------------------------|
|-------------------------------------|
|-0-0-0-0-0-0-0-0-0-0-0-0-0-0-0-0-----|
|-0-0-0-0-0-0-0-0-0-0-0-0-0-0-0-0-----|


   T  T  T  T  T  T  T  T  T  T  T  T  T  T  T  T
|----------------------------------------------17-|
|----------------15----------------------17-------|
|----12----15----------15----14----18-------14----|
|-------------12----------------------14----------|
|-10----13----------13----12----16----------------|
|-------------------------------------------------|
|
|  PM-----------------------------------------------|   T  T  T  T  T  T  T  T
|----------------------------------------------17---|
|----------------------------------------17---------|
|----------------------------14----18-------14------|
|-------------------------------------14------------|
|--0--0--0--0--0--0--0--0-12----16------------------|
|--0--0--0--0--0--0--0--0---------------------------|


||--10p5-------5-10p5-17p12----------12-17p12---|
||o------6---6--------------14----14------------|
||---------7-------------------14---------------|
||----------------------------------------------|
||o---------------------------------------------|
||----------------------------------------------|
|
||----------------------------------------------|
||o---------------------------------------------|
||----------------------------------------------|
||----------------------------------------------|
||o--0-0-0-0---0--0----7--7--7-----7--7--7--7---|
||---0-0-0-0---0--0----7--7--7-----7--7--7--7---|


|-9p6-------6-9p6-10p5-------5-10p5-|-11p6-------6-11p6-10p5-------5-10p5---|
|-----8---8------------6---6--------|------8---8-------------6---6----------|
|-------9----------------7----------|--------8-----------------7------------|
|-----------------------------------|---------------------------------------|
|-----------------------------------|---------------------------------------|
|-----------------------------------|---------------------------------------|
|
|-----------------------------------|---------------------------------------|
|-----------------------------------|---------------------------------------|
|-----------------------------------|---------------------------------------|
|-----------------------------------|---------------------------------------|
|-2-2-2-2---2-2----0-0-0---0-0--0-0-|--1-1-1-1---1--1----0-0-0---0-0--0-0---|
|-2-2-2-2---2-2----0-0-0---0-0--0-0-|--1-1-1-1---1--1----0-0-0---0-0--0-0---|


|-17p12----------12-17p12-13p9--------------------||
|-------14----14---------------11----------------o||
|----------14---------------------12-15-14-12-14--||
|-------------------------------------------------||
|------------------------------------------------o||
|-------------------------------------------------||
|
|-------------------------------------------------||
|------------------------------------------------o||
|-------------------------------------------------||
|-------------------------------------------------||
|--5--5--5--5-----5--5-----3-3--3-----0--0--0--0-o||
|--5--5--5--5-----5--5-----3-3--3-----0--0--0--0--||


|-------------------------------------------|
|-------------------------------------------|
|-------------------------------------------|
|-3-7-5-7-3-7-5-7-11-14-12-14-11-14-12-14---|
|-------------------------------------------|
|-------------------------------------------|
|
|-------------------------------------------|
|-------------------------------------------|
|-------------------------------------------|
|------------------7-11--8-11--7-11--8-11---|
|-5-8-7-8-5-8-7-8---------------------------|
|-------------------------------------------|


|-------------------------------------|---------------------------------------|
|-------------------------------------|---------------------------------------|
|-------------------------------------|---------------------------------------|
|-5--8-7--8-5--8-7--8-3-7-5-7-3-7-5-7-|-5--8-7--8-5--8-7--8-3-7-5-7-3-7-5-7---|
|-------------------------------------|---------------------------------------|
|-------------------------------------|---------------------------------------|
|
|-------------------------------------|---------------------------------------|
|-------------------------------------|---------------------------------------|
|-------------------------------------|---------------------------------------|
|-------------------------------------|---------------------------------------|
|-7-10-8-10-7-10-8-10-5-8-7-8-5-8-7-8-|-6-10-8-10-6-10-8-10-5-8-7-8-5-8-7-8---|
|-------------------------------------|---------------------------------------|


|-------------------------------------------------|
|-------------------------------------------------|
|-------------------------------------------------|
|-11-14-12-14-11-14-12-14-14-17-15-17-14-17-15-14-|
|-------------------------------------------------|
|-------------------------------------------------|
|
|-------------------------------------------------|
|-------------------------------------------------|
|--------------------------6--9--7--9--6--9--7--6-|
|--7-11--8-11--7-11--8-11-------------------------|
|-------------------------------------------------|
|-------------------------------------------------|
|
|-------------------------------------------------|
|-------------------------------------------------|
|-------------------------------------------------|
|-------------------------------------------------|
|-------------------------------------------------|
|-------------------------------------------------|


|-13-15-17-15-13-15-17-15--8-10-12-10--8-10-12-10---|
|---------------------------------------------------|
|---------------------------------------------------|
|---------------------------------------------------|
|---------------------------------------------------|
|---------------------------------------------------|
|
|-17-18-20-18-17-18-20-18-12-13-15-13-12-13-15-13---|
|---------------------------------------------------|
|---------------------------------------------------|
|---------------------------------------------------|
|---------------------------------------------------|
|---------------------------------------------------|
|
|---------------------------------------------------|
|---------------------------------------------------|
|--------------------------5--5--5-----5--5--5--5---|
|--------------------------5--5--5-----5--5--5--5---|
|--3--3--3--3-----3--3-----3--3--3-----3--3--3--3---|
|--3--3--3--3-----3--3------------------------------|


|-10-12-13-12-10-12-13-12-------------------------|
|-------------------------11-13-15-13-11-13-15-13-|
|-------------------------------------------------|
|-------------------------------------------------|
|-------------------------------------------------|
|-------------------------------------------------|
|
|-13-15-17-15-13-15-17-15-------------------------|
|-------------------------15-17-18-17-15-17-18-17-|
|-------------------------------------------------|
|-------------------------------------------------|
|-------------------------------------------------|
|-------------------------------------------------|
|
|-------------------------------------------------|
|-------------------------------------------------|
|--------------------------3--3--3-----3--3--3--3-|
|--------------------------3--3--3-----3--3--3--3-|
|--0--0--0--0-----0--0-----1--1--1-----1--1--1--1-|
|--0--0--0--0-----0--0----------------------------|


|-------------------------13p10----------10-13p10---|
|-------------------------------12----12------------|
|-10-12-14-12-10-12-14-12----------13---------------|
|---------------------------------------------------|
|---------------------------------------------------|
|---------------------------------------------------|
|
|-------------------------16-13----------13-16-13---|
|-------------------------------15----15------------|
|-14-15-17-15-14-15-17-15----------16---------------|
|---------------------------------------------------|
|---------------------------------------------------|
|---------------------------------------------------|
|
|---------------------------------------------------|
|---------------------------------------------------|
|---------------------------------------------------|
|--------------------------------6--------6h=9------|
|--3--3--3--3-----3--3-----5h=8-----5h=8------------|
|--3--3--3--3-----3--3------------------------------|


|-10-12-10--8-10-12-10--8-12-13-12-10-12-13-12-10-13-15-13-12-13-15-13-12-15-17-15-13-15-17-17--------|
|-----------------------------------------------------------------------------------------------------|
|-----------------------------------------------------------------------------------------------------|
|-----------------------------------------------------------------------------------------------------|
|-----------------------------------------------------------------------------------------------------|
|-----------------------------------------------------------------------------------------------------|
|
|-13-15-13-12-13-15-13-12-15-17-15-13-15-17-15-13-17-18-17-15-17-18-17-15-18-20-18-17-18-20-20--------|
|-----------------------------------------------------------------------------------------------------|
|-----------------------------------------------------------------------------------------------------|
|-----------------------------------------------------------------------------------------------------|
|-----------------------------------------------------------------------------------------------------|
|-----------------------------------------------------------------------------------------------------|
|
|-----------------------------------------------------------------------------------------------------|
|-----------------------------------------------------------------------------------------------------|
|-----------------------------------------------------------------------------------------------------|
|-10-10-10-10----10-10----10-10-10----10-10-10-10-10-10-10-10----10-10----10-10-10--------------------|
|-10-10-10-10----10-10----10-10-10----10-10-10-10-10-10-10-10----10-10----10-10-10-----5--5--5-5------|
|-10-10-10-10----10-10----10-10-10----10-10-10-10-10-10-10-10----10-10----10-10-10-----5--5--5-5------|


|-13-15-17-15-13-15-17-15--8-10-12-10--8-10-12-10-|
|-------------------------------------------------|
|-------------------------------------------------|
|-------------------------------------------------|
|-------------------------------------------------|
|-------------------------------------------------|
|
|-17-18-20-18-17-18-20-18-12-13-15-13-12-13-15-13-|
|-------------------------------------------------|
|-------------------------------------------------|
|-------------------------------------------------|
|-------------------------------------------------|
|-------------------------------------------------|
|
|-------------------------------------------------|
|-------------------------------------------------|
|--------------------------5--5--5-----5--5--5--5-|
|--------------------------5--5--5-----5--5--5--5-|
|--3--3--3--3-----3--3-----3--3--3-----3--3--3--3-|
|--3--3--3--3-----3--3----------------------------|


|-10-12-13-12-10-12-13-12---------------------------|
|-------------------------11-13-15-13-11-13-15-13---|
|---------------------------------------------------|
|---------------------------------------------------|
|---------------------------------------------------|
|---------------------------------------------------|
|
|-13-15-17-15-13-15-17-15---------------------------|
|-------------------------15-17-18-17-15-17-18-17---|
|---------------------------------------------------|
|---------------------------------------------------|
|---------------------------------------------------|
|---------------------------------------------------|
|
|---------------------------------------------------|
|---------------------------------------------------|
|--------------------------3--3--3-----3--3--3--3---|
|--------------------------3--3--3-----3--3--3--3---|
|--0--0--0--0-----0--0-----1--1--1-----1--1--1--1---|
|--0--0--0--0-----0--0------------------------------|


|-------------------------13p10----------10-13p10-|
|-------------------------------12----12----------|
|-10-12-14-12-10-12-14-12----------13-------------|
|-------------------------------------------------|
|-------------------------------------------------|
|-------------------------------------------------|
|
|-------------------------16-13----------13-16-13-|
|-------------------------------15----15----------|
|-14-15-17-15-14-15-17-15----------16-------------|
|-------------------------------------------------|
|-------------------------------------------------|
|-------------------------------------------------|
|
|-------------------------------------------------|
|-------------------------------------------------|
|-------------------------------------------------|
|--------------------------------6-----------6h=9-|
|--3--3--3--3-----3--3-----5h=8--------5h=8-------|
|--3--3--3--3-----3--3----------------------------|


|-10-12----10-----8----10-12-10-----8----12--13-12-10----12----13--12-10-13----15----13----12--|
|----------------------------------------------------------------------------------------------|
|----------------------------------------------------------------------------------------------|
|----------------------------------------------------------------------------------------------|
|----------------------------------------------------------------------------------------------|
|----------------------------------------------------------------------------------------------|
|
|-13-15----13----12----13-15-13----12----15--17-15-13----15----17--15-13-17----18----17----15--|
|----------------------------------------------------------------------------------------------|
|----------------------------------------------------------------------------------------------|
|----------------------------------------------------------------------------------------------|
|----------------------------------------------------------------------------------------------|
|----------------------------------------------------------------------------------------------|
|
|----------------------------------------------------------------------------------------------|
|----------------------------------------------------------------------------------------------|
|----------------------------------------------------------------------------------------------|
|-10----10----10----10----------10----10--------10----10----10--------10----10----10----10-----|
|-10----10----10----10----------10----10--------10----10----10--------10----10----10----10-----|
|-10----10----10----10----------10----10--------10----10----10--------10----10----10----10-----|


|-13-15----13----12----15-17-15----13----15----17-17------|
|---------------------------------------------------------|
|---------------------------------------------------------|
|---------------------------------------------------------|
|---------------------------------------------------------|
|---------------------------------------------------------|
|
|-17-18----17----15----18-20-18----17----18----20-20------|
|---------------------------------------------------------|
|---------------------------------------------------------|
|---------------------------------------------------------|
|---------------------------------------------------------|
|---------------------------------------------------------|
|
|---------------------------------------------------------|
|---------------------------------------------------------|
|---------------------------------------------------------|
|-10----10----10----10----------10----10----10----10------|
|-10----10----10----10----------10----10----10----10------|
|-10----10----10----10----------10----10----10----10------|


    PM|                      PM             PM        PM                             PM--|
||-----------------------------------------------------------------------------------------------------------------------||
||o---------------------------------------------------------------------------------------------------------------------o||
||-----------------------------------------------------------------------------------------------------------------------||
||---------------------------------5-------------------------------------------------------------------------------------||
||o------7----8---4-5h=7p5---------------------5---4------10----8----7--8--7h=8p=7----------12-------7h=8p===7\---5-----o||
||--0-0----------------------0-----------0--0---------0------------------------------0---0-------0-----------------------||
|
|   PM|                      PM          PM-|         PM                             PM--|       PM
||-----------------------------------------------------------------------------------------------------------------------||
||o---------------------------------------------------------------------------------------------------------------------o||
||-----------------------------------------------------------------------------------------------------------------------||
||-----------------------------------------------------------------------------------------------------------------------||
||o-----10---12---7-8h10p8--------13-----------8---7------13---12---10-12-10h12p10----------15------10h12p==10\---8-----o||
||--0-0----------------------0-----------0--0---------0------------------------------0---0-------0-----------------------||
|
|   PM---------------------------------------------------------------------------------------------------------------------|
||-------------------------------------------------------------------------------------------------------------------------|
||o---------------------------------------------------------------------------------------------------------------------o--|
||-------------------------------------------------------------------------------------------------------------------------|
||-------------------------------------------------------------------------------------------------------------------------|
||o-0-0--0-0--0-0----------0---0-----0-0-------0-0-0--0-0--0-0--0-0----------------0---0-------0-0---0----0-----0-------o--|
||--0-0--0-0--0-0----------0---0-----0-0-------0-0-0--0-0--0-0--0-0----------------0---0-------0-0---0----0-----0----------|


|------------------------------------------------------------------11p6-------6-11p6-18p15-----------15-18p15-18p15----15----|
|-----------------------------------------------------------------------8---8---------------15----15----------------15-------|
|----------12-------12-14---15---14-15---14---12--------------------------8--------------------15----------------------------|
|-12-14-15----14-15----------------------------------12--14---15-7-----------------------------------------------------------|
|----------------------------------------------------------------------------------------------------------------------------|
|----------------------------------------------------------------------------------------------------------------------------|
|
|----------------------------------------------------------------------------------------------------------------------------|
|----------11-------11-13---15---13-15---13---11-----------------------------------------------------------------------------|
|-10-12-14----12-14----------------------------------10--12---14-5-----------------------------------------------------------|
|----------------------------------------------------------------------------------------------------------------------------|
|----------------------------------------------------------------------------------------------------------------------------|
|----------------------------------------------------------------------------------------------------------------------------|
|
|  PM------|                   PM---------------------------|           PM----|                    PM-------------------------|
|-----------------------------------------------------------------------------------------------------------------------------|
|-----------------------------------------------------------------------------------------------------------------------------|
|--------------2-----2----2------------------------------------2-2--2------------8----8------8-----------------------------8--|
|--------------3-----3----3------------------------------------3-3--3------------8----8------8-----------------------------8--|
|--------------5-----5----5------------------------------------5-5--5-----------10---10-----10----------------------------10--|
|--0--0--0--0------------------0--0----0----0----0-0------0-0-----------1-1-1-1--------------------1--1--1--1--1--1--1--1-----|


|------------------------------------------------------------------11p6-------6-11p6-18p14-----------14-18p14-18------------|
|-----------------------------------------------------------------------7---7---------------16----16------------------------|
|----------12-------12-14---15---14-15---14---12--------------------------8--------------------15---------------------------|
|-12-14-15----14-15----------------------------------12--14---15-7----------------------------------------------------------|
|---------------------------------------------------------------------------------------------------------------------------|
|---------------------------------------------------------------------------------------------------------------------------|
|
|---------------------------------------------------------------------------------------------------------------------------|
|----------11-------11-13---15---13-15---13---11----------------------------------------------------------------------------|
|-10-12-14----12-14----------------------------------10--12---14-5----------------------------------------------------------|
|---------------------------------------------------------------------------------------------------------------------------|
|---------------------------------------------------------------------------------------------------------------------------|
|---------------------------------------------------------------------------------------------------------------------------|
|
|  PM------|                   PM------------------------------------------------------------------------------------------|
|--------------------------------------------------------------------------------------------------------------------------|
|--------------------------------------------------------------------------------------------------------------------------|
|--------------2-----2----2------------------------------------2-2--2---3-3-3-3--3-3--3--3---3--3--3--3--3--3--3-3-3-------|
|--------------3-----3----3------------------------------------3-3--3---4-4-4-4--4-4--4--4---4--4--4--4--4--4--4-4-4-------|
|--------------5-----5----5------------------------------------5-5--5---6-6-6-6--6-6--6--6---6--6--6--6--6--6--6-6-6---8\--|
|--0--0--0--0------------------0--0----0----0----0-0------0-0----------------------------------------------------------8\--|


||--------------------------18p15----------15-18p15-|-18p15----15----|
||o-16p11----------11-16p11-------15----15----------|-------15-------|
||--------12----12-------------------15-------------|----------------|
||-----------13-------------------------------------|----------------|
||o-------------------------------------------------|----------------|
||--------------------------------------------------|----------------|
|
|    PM----------------------------------------------------------------|
||--------------------------------------------------|------------------|
||o-------------------------------------------------|------------------|
||--------------------------------------------------|------------------|
||--------------------------------------------------|------------------|
||o--1--1--1--1--1--1--------------1--1-----1--1----|--1--1--1---------|
||---1--1--1--1--1--1--------------1--1-----1--1----|--1--1--1---------|


|-------------------------18p15----------15-18p15-|
|-16p11----------11-16p11-------15----15----------|
|-------12----12-------------------15-------------|
|----------13-------------------------------------|
|-------------------------------------------------|
|-------------------------------------------------|
|
|  PM-----------------------------------------------|
|---------------------------------------------------|
|---------------------------------------------------|
|---------------------------------------------------|
|---------------------------------------------------|
|--1--1--1--1--1--1--------------1--1-----1--1------|
|--1--1--1--1--1--1--------------1--1-----1--1------|


|-18p15----15-------------------------18p15-------|----15-18p15-18p15----15---|
|-------15----16p11----------11-16p11-------15----|-15----------------15------|
|-------------------12----12-------------------15-|---------------------------|
|----------------------13-------------------------|---------------------------|
|-------------------------------------------------|---------------------------|
|-------------------------------------------------|---------------------------|
|
|-------|      PM---------------------------------------------------------------|
|-------------------------------------------------|-----------------------------|
|-------------------------------------------------|-----------------------------|
|-------------------------------------------------|-----------------------------|
|-------------------------------------------------|-----------------------------|
|--1--1--1-----1--1--1--1--1--1--------------1--1-|-----1--1-----1--1--1--------|
|--1--1--1-----1--1--1--1--1--1--------------1--1-|-----1--1-----1--1--1--------|


                                                            4x
|-10p5-------5-10p5-17p13----------13-17p13-|-17p13----13---||----|
|------6---6--------------15----15----------|-------15-----o||----|
|--------7-------------------14-------------|---------------||----|
|-------------------------------------------|---------------||----|
|-------------------------------------------|--------------o||----|
|-------------------------------------------|---------------||----|
|
|  PM-----------------------------------------|
|                                                           4x
|-------------------------------------------|---------------||----|
|-------------------------------------------|--------------o||----|
|-------------------------------------------|---------------||----|
|-------------------------------------------|---------------||----|
|--0-0-0-0-0-0-------------0--0-----0--0----|--0--0--0-----o||----|
|--0-0-0-0-0-0-------------0--0-----0--0----|--0--0--0------||----|


|-10p5-------5-10p5-17p13----------13-17p13-|-17p13-17----|
|------6---6--------------15----15----------|-------------|
|--------7-------------------14-------------|-------------|
|-------------------------------------------|-------------|
|-------------------------------------------|-------------|
|-------------------------------------------|-------------|
|
|  PM-------------------------------------------------------|
|-------------------------------------------|---------------|
|-------------------------------------------|---------------|
|-------------------------------------------|---------------|
|-------------------------------------------|---------------|
|--0-0-0-0-0-0-------------0--0-----0--0----|--0------------|
|--0-0-0-0-0-0-------------0--0-----0--0----|--0------------|

** Generated using Power Tab Editor by Brad Larsen: The Official Power Tab Web Site
comments
print report bad tab
19 comments total. Showing first comments.
0 reply
mattwilham wrote on January 11 2007, 08:58 pm

so..im just going to go ahead and say it........I LOVE YOU!!!!!!!!!!!!!!! i thank baby jesus for awesome people like you.

0 reply
thrash_bassist wrote on April 13 2007, 10:48 am

they use wierd chords. o.o

0 reply
bleedoutblack wrote on July 30 2007, 12:31 am

i must say this tab blew me the f*** away

I want to post or [tab]
guest
You may want to rate the tab now too:
select rating
Please do not post tabs as comments. Select "correction" instead!