Oops, an error
Loading. Please wait.

Closing In Tab

ver3
ver3

Whole song

Interactive

More versions @911Tabs.com
1,660 views 12 this week
no commentswrite comment
1 2 3 4 5
please rate
Autoscroll
+/-
esc
set tempo
stop
Contributor
Hey! There's an official Ultimate Guitar app which is ideal
for learning songs when you're away from computer. Get the app
WARNING: You are trying to view
                                    content from Ultimate-Guitar.com
                                    in an unauthorized application,
                                    which is prohibited.

                                    Please use an official Ultimate
                                    Guitar Tabs application for iPhone,
                                    iPad or Android to access legitimate
                                    chords, guitar, bass, and drum tabs
                                    from Ultimate-Guitar.com database.

                                    Type "ultimate guitar tabs" in Apple
                                    App Store's or Android Market's
                                    search to find the application.
                              CLOSING IN


I just sent this in, it is really tabebd by Jason Zarpellon
Sent in by: Brock Anderson

~= vibrado
p= pull off
h= hammer on
/= slide up
\= slide down
^= bend up
^^= bend up 2 frets
^v= bend up, then bring it back down

Ok. This is probably the hardest Living End song. The time is on top of each
bit, so you'll know what to play and when to play it. All I can say is, good luck.

0:00-0:05
e-------------------------------------------------5--|
b--3p2------6p5------9p8-------12p11\-------------8--|
g------2--------5--------8-------------7--9-10-7--6--|
d--------4--------7--------10----------x--x-x--x--5--|
a--------------------------------------5--7-8--5--7--|
e-------------------------------------------------5--|

0:05-0:12
e--------------------------8--7-7---|-------------------------8--7--|
b--------------5-----5h6-8------9---|-------------5-----5h6-8-------|
g--------5\4-7---8\7----------------|-------5\4-7---8\7-------------|
d------7----------------------------|-----7-------------------------|
a--5-8------------------------------|-5-8---------------------------|
e-----------------------------------|-------------------------------|

0:13-0:15
e---------------------------------------11-13-15-17\-----|
b------------------------------10-12-14------------------|
g----------------------8-10-12---------------------------|
d---------------7-9-11-----------------------------------|
a--------6-8-10------------------------------------------|
e--5-7-9-------------------------------------------------|

0:15-0:20
e-------------------------------------------------------------/11--10---|
b----------------------5---5h6p5---5---------------------7-10-----------|
g-----7-7---------/7-7---7-------7---------7-7-------7/8----------------|
d---------8-8-7-7------------------------------8-8-7--------------------|
a-5-5----------------------------------5-5------------------------------|
e-----------------------------------------------------------------------|

0:21-0:25
e---------------------------------10--8---8---6-----5--5--5--|
b---------------------------------11--8---9---6--8--5--6--5--|
g--------7p5------------------8\--10--9---8---7--8--6--7--6--|
d-/5-7h8------7--7-7h8p7-7-5--8\--12--8---10--6--8--7--7--5--|
a---------------------------------10--10--8---8--6--7--5--7--|
e-------------------------------------8-------6-----5-----5--|

0:26-0:30
e-------------------------------------------------------------/11--10---|
b----------------------5---5h6p5---5---------------------7-10-----------|
g-----7-7---------/7-7---7-------7---------7-7-------7/8----------------|
d---------8-8-7-7------------------------------8-8-7--------------------|
a-5-5----------------------------------5-5------------------------------|
e-----------------------------------------------------------------------|

0:31-0:35
e---------------------------------10--8---8---6-----5--5--5--|
b---------------------------------11--8---9---6--8--5--6--5--|
g--------7p5------------------8\--10--9---8---7--8--6--7--6--|
d-/5-7h8------7--7-7h8p7-7-5--8\--12--8---10--6--8--7--7--5--|
a---------------------------------10--10--8---8--6--7--5--7--|
e-------------------------------------8-------6-----5-----5--|

0:35-0:43
e---------------------------------------------------------------------------------------------------|
b------------------------------------------------------------------------------------6-6-6-6-6-6-8--|
g---7-7-7-7-7-7-7-7--9-9-9-9-9-9-9-9-------------------------------------7-7-7-7-7-7-7-7-7-7-7-7-7--|
d---7-7-7-7-7-7-7-7--9-9-9-9-9-9-9-9--10-10-10-10-10-10-10---7-7-7-7-7-7-7-7-7-7-7-7-7-7-7-7-7-7-7--|
a-5-5-5-5-5-5-5-5-5--7-7-7-7-7-7-7-7--8--8--8--8--8--8--8----5-5-5-5-5-5-5-5-5-5-5-5-5-5-5-5-5-5-5--|
e---------------------------------------------------------------------------------------------------|

0:44-0:53
e-------------------------------------------|-----------------------------------------------------------------------------|
b--3---------5-6-8--5--5--------------------|--3---------5-6--8-6~-5------------------------------------------------------|
g--3-5-3--2--5---------5--7p5-4-5-4---------|--3-5-3--2--5------------5-5-5-4-4-4-5-5-5-7-7-7-8--8--8--7-7-7-8--8--8--10\-|
d-----------------------------------7h5-5/7-|-------------------------7-7-7-6-6-6-7-7-7-9-9-9-10-10-10-9-9-9-10-10-10-12\-|
a-------------------------------------------|-----------------------------------------------------------------------------|
e-------------------------------------------|-----------------------------------------------------------------------------|

0:54-0:59
e---------------------------3h5h6-------------6h8h9----------------9h11h12---10-|
b--7-5------------5p3---3h5---------8p6---6h8---------11p9----9h11--------------|
g------8-7-5----------5-----------------8------------------11-------------------|
d------------8-7----------------------------------------------------------------|
a-------------------------------------------------------------------------------|
e-------------------------------------------------------------------------------|
   pm...........

1:00-1:12
e-----------------------------------------------------------------|
b-------------------------------------------------------10-7------|
g--------7--------------6---------------9----------7-10------8-5--|
d--5-8-7---5-8-7--4-7-6---4-7-6--7-10-9---7-10-9-8----------------| x2
a-----------------------------------------------------------------|
e-----------------------------------------------------------------|
   pm...........................................................

1:13-1:19
e-----------------------------------------------------------------|
b-------------------------------------------------------10-7------|
g--------7--------------6---------------9----------7-10------8-5--|
d--5-8-7---5-8-7--4-7-6---4-7-6--7-10-9---7-10-9-8----------------| 
a-----------------------------------------------------------------|
e-----------------------------------------------------------------|

1:19-1:25
e------------------------------------------------------------------------|
b-------------------------------------------------------10-7-------7-10--|
g--------7--------------6---------------9----------7-10------8-5-8-------|
d--5-8-7---5-8-7--4-7-6---4-7-6--7-10-9---7-10-9-8-----------------------| 
a------------------------------------------------------------------------|
e------------------------------------------------------------------------|

1:25-1:29
e-8p5-------11p8---------14p11----------17p14--------------------------|
b-----7----------10------------13-------------16-----------------------|
g-------8p5---------11p8----------14p11----------17p14-----------------|
d--------------------------------------------------------------~~~~~---|
a--------------------------------------------------------------~~~~~---|
e--------------------------------------------------------------~~~~~---|
                                                              pickslide

This is where it goes into the fast solo

1:30-1:35
e------------------------------------|-----------------------------|
b--10----10-10-10-10-----10^---------|-----------------------------|
g--12^^-----------12^v---10^---------|-----------------------------|
d----------------------12-----12-12~-|--10-10h12p10----10----------|
a------------------------------------|--------------12-----12\10-8-|
e------------------------------------|-----------------------------|

1:35-1:39
e---------------------------------------------------------------------------------------------------|
b---------------------------------------------------------------------------------------------------|
g----------------------------------10--12p10----10-12-12-12^--12^--12^v-10h12p10-12-----------------|
d------------10-12p10----10--12-13-----------13----------------------------------12----10-12--------|
a-/10--12-13----------13------------------------------------------------------------12-------12\10~-|
e---------------------------------------------------------------------------------------------------|

1:40-1:46
e--10^--------------------------------------------------/17-13----------------|
b--10^---------------------------------------------------------15-------------|
g--10^------------------------------------------------------------14-13~-14\--|
d----------10-12-12^v--10h12p10----10-----------------------------------------|
a-------12----------------------12----12\10-8------10-8-----------------------|
e---------------------------------------------10p8----------------------------|

1:47-1:49
e--------------------------------------------------|
b-11p10p8---------10p9p7---------------------------|
g---------11p10p8--------10p9p7-10p9p7-9p7-6h7-----|
d----------------------------------------------7~--|
a--------------------------------------------------|
e--------------------------------------------------|

1:49-1:51
e-------------------------------------------------------------|
b-------------------------------------------------------------|
g-12p10-----12p10-12p10-----12p10-12p10-----12p10-12p10-------|
d------10h12-----------12p10-----------12h10-----------10h12--|
a-------------------------------------------------------------|
e-------------------------------------------------------------|

1:52-1:54
e------------------------------------------------------------------|
b------------------------------------------------------------------|
g-12p10-13p10-----13p10-13p10-----13-13-13p10-----13p10-13p10------|
d------------12p10-----------10h12-----------12h10-----------10h12-|
a------------------------------------------------------------------|
e------------------------------------------------------------------|

1:54-1:56
e------------------------------------------------------------------|
b------------------------------------------------------------------|
g-13p10-14p10-----14-14-14p10-----14p10-14p10-----14p10-14p10------|
d------------12p10-----------10h12-----------12h10-----------10h12-|
a------------------------------------------------------------------|
e------------------------------------------------------------------|


1:56-1:58
e---------------------------------------------|
b----------------------------13---------------|
g------10-12p10--12p10-12/14----14p12\10------|
d-/12----------12------------------------12~--|
a---------------------------------------------|
e---------------------------------------------|

1:58-2:03
e-----13----15^^-15^^-15^^v-------------15----15----15------------|
b-/15---13------------------15-15---15^^--15^^--15^^---15^^v^-13~-|
g-----------------------------------------------------------------|
d-----------------------------------------------------------------|
a-----------------------------------------------------------------|
e-----------------------------------------------------------------|

2:03-2:08
e-15^^-15^^v---13----------13h15p13p12-13p12--12-----------------------------------|
b-----------15-13--15-15~-------------------15--15p13-15p13p12-13p12--12-----------|
g-------------------------------------------------------------------14--14p12h14\--|
d----------------------------------------------------------------------------------|
a----------------------------------------------------------------------------------|
e----------------------------------------------------------------------------------|

2:08-2:14
e---------------------------3h5h6-------------6h8h9----------------9h11h12--13--|
b--7-5------------5p3---3h5---------8p6---6h8---------11p9----9h11----------13--|
g------8-7-5----------5-----------------8------------------11-------------------|
d------------8-7----------------------------------------------------------------|
a-------------------------------------------------------------------------------|
e-------------------------------------------------------------------------------|

2:15-2:19
e-----------------------------------------------------------/11--10---|
b----------------------5----6----5---------------------7-10-----------|
g-----7-7---------/7-7---7-----7---------7-7-------7/8----------------|
d---------8-8-7-7----------------------------8-8-7--------------------|
a-5-5--------------------------------5-5------------------------------|
e---------------------------------------------------------------------|

2:20-2:24
e---------------------------------10--8---8---6-----5--5--5--|
b---------------------------------11--8---9---6--8--5--6--5--|
g--------7p5------------------8\--10--9---8---7--8--6--7--6--|
d-/5-7h8------7--7-7h8p7-7-5--8\--12--8---10--6--8--7--7--5--|
a---------------------------------10--10--8---8--6--7--5--7--|
e-------------------------------------8-------6-----5-----5--|

2:24-2:28
e-------------------------------------------------------------/11--10---|
b----------------------5---5h6p5---5---------------------7-10-----------|
g-----7-7---------/7-7---7-------7---------7-7-------7/8----------------|
d---------8-8-7-7------------------------------8-8-7--------------------|
a-5-5----------------------------------5-5------------------------------|
e-----------------------------------------------------------------------|

2:28-2:38
e---------------------------------10--8---8---6-----5--5--5------5-5-5-5-5-5-5-5-5-5-5-|
b---------------------------------11--8---9---6--8--5--6--5------5-5-5-5-5-5-5-5-5-5-5-|
g--------7p5------------------8\--10--9---8---7--8--6--7--6------6-6-6-6-6-6-6-6-6-6-6-|
d-/5-7h8------7--7-7h8p7-7-5--8\--12--8---10--6--8--7--7--5------5-5-5-5-5-5-5-5-5-5-5-|
a---------------------------------10--10--8---8--6--7--5--7------7-7-7-7-7-7-7-7-7-7-7-|
e-------------------------------------8-------6-----5-----5------5-5-5-5-5-5-5-5-5-5-5-|

2:39-2:45
e--------------------------------------------|
b--6----6-6-6-6-6-6-6-6-6-6-6-6-6-6-6-6-6-6--|
g--6----6-6-6-6-6-6-6-6-6-6-6-6-6-6-6-6-6-6--|
d--7----7-7-7-7-7-7-7-7-7-7-7-7-7-7-7-7-7-7--|
a--8----8-8-8-8-8-8-8-8-8-8-8-8-8-8-8-8-8-8--|
e--------------------------------------------|

2:45-2:57
e--5------8^--8^vp6---8-6^--------------------------------------------------12-15-15^-15^-15^-15^-15^-15^---15^---15^------|
b--6----------------8-8-6^-----------------------------------------------13------------------------------------------------|
g--7------------------------10----------------------------------10h12h14---------------------------------------------------|
d--7---------------------------12p10----10----------------10h12------------------------------------------------------------|
a--5---------------------------------12----12p10----10h12------------------------------------------------------------------|
e------------------------------------------------12-------------------------------------------------------------------~~~~-|
                                                                                                                    pickslide
Finish on:
e--5\--|
b--6\--|
g--7\--|
d--7\--|
a--5\--|
e------|

Thank God for that!
Tabbed by Jason Zarpellon
jason_zarps@hotmail.com
comments
We did not receive enough feedback on this tab! Please rate:
print report bad tab
1 2 3 4 5
I want to post or [tab]
guest
You may want to rate the tab now too:
select rating
Please do not post tabs as comments. Select "correction" instead!