Oops, an error
Loading. Please wait.

From Here On In Tab

ver1
ver1

Album

Whole song

More versions @911Tabs.com
2,695 views 1 this week
1 commentread comment
1 2 3 4 5
excellent!
x 5
add to favorites launch autoscroll
font size
0
reset
Autoscroll
+/-
esc
set tempo
stop
Contributor
Difficulty
intermediate
WARNING: You are trying to view
                                    content from Ultimate-Guitar.com
                                    in an unauthorized application,
                                    which is prohibited.

                                    Please use an official Ultimate
                                    Guitar Tabs application for iPhone,
                                    iPad or Android to access legitimate
                                    chords, guitar, bass, and drum tabs
                                    from Ultimate-Guitar.com database.

                                    Type "ultimate guitar tabs" in Apple
                                    App Store's or Android Market's
                                    search to find the application.
                             From Here On In (Album)

                                 The Living End


Okay First off i didn't tab this, I put it togethere from seperate tabs from the website www.thelivingendtabpage.cjb.net.

Please rate and comment.

Enjoy

Tracks:

1.  I Can't Give You What I Haven't Got
2.  Prisoner Of Society
3.  Roll On
4.  West End Riot
5.  Second Solution
6.  Bringin' It All Back Home
7.  All Torn down
8.  Pictures In The Mirror
9.  From Here On In
10. Save The Day
11. Who's Gonna Save Us
12. One Said To The Other
13. Dirty Man
14. Tabloid Magazine


I CAN'T GIVE YOU WHAT I HAVEN'T GOT

Intro:

e--x-x-x-x-x-x-x-x--|
b--x-x-x-x-x-x-x-x--|
g--x-x-x-x-x-x-x-x--|
d--x-x-x-x-x-x-x-x--|
a--x-x-x-x-x-x-x-x--|
e--x-x-x-x-x-x-x-x--|

Verse 1: There's 2 ways of playing the main riff.
         Just play it however you think is easier.

(Chris's way)
e---------------------------------|
b---------------------------------|
g-----9-9-----7-----5--4-4-4-4----|
d--7--7-7--7--7--7--7--5-5-5-5----| Repeat
a--0--7-7--0--7--0--7--7-7-7-7----| as needed
e---------------------------------|


(My Way)
e---------------------------------|
b-----5-5-----3-----1--0-0-0-0----|
g-----2-2-----2-----2--0-0-0-0----| Repeat
d--2--2-2--2--2--2--2--2-2-2-2----| as needed
a--0--0-0--0--0--0--0--0-0-0-0----|
e---------------------------------|
"Don't go getting yourself in a knot
looking for a story but you have no plot
communication lines are"


   F                         Am   F    G    Em
e----------------------------0----1----3----0--|
b----------------------------1----1----0----0--|
g----------------------------2----2----0----0--|
d--3--3--3--3--3--3--3--3----2----3----0----2--|
a--3--3--3--3--3--3--3--3----0----3----2----2--|
e--1--1--1--1--1--1--1--1---------1----3----0--|
"starting to rot,
and I can't give you what i haven't"


e--5--|
b--5--|
g--5--|
d--7--|
a--7--|
e--5--|
"Got"


Verse 2: Same as verse 1

"If i could make the world stop still for you
i wouldn't waste another moment thinking it through
but the capabilities i have not
and i cant give you what i haven't"


e--5----5----5----5----5-5-5-5-5-5-5-5-5--|
b--5----5----5----5----5-5-5-5-5-5-5-5-5--|
g--5----5----5----5----5-5-5-5-5-5-5-5-5--|
d--7----7----7----7----7-7-6-6-7-7-6-6-7--|
a--7----7----7----7----7-7-7-7-7-7-7-7-7--|
e--5----5----5----5----5-5-5-5-5-5-5-5-5--|
"Got"


Chorus: Guitar in backround plays
        Dm, G, Dm with tremelo.


Upstrokes
   Dm           G
e--5--5--5--5---3--3--3--3---5--5--5--5----|
b--6--6--6--6---3--3--3--3---6--6--6--6----|
g--7--7--7--7---4--4--4--4---7--7--7--7----|
d--7--7--7--7---5--5--5--5---7--7--7--7----|
a------------------------------------------|
e------------------------------------------|
"your wanting me to be
something that i cant see
your wanting me to do"

   Em
e----------------------------|
b----------------------------|
g----------------------------|
d--2--2--2--2--2--2--2--2----|
a--2--2--2--2--2--2--2--2----|
e--0--0--0--0--0--0--0--0----|
"Something I can't do."


Verse 3: Same as verse 1

"And it's always just the same
and I'm still playin' in this endless game
I wonder if you even know my name?
and I cant give you what i haven't got."


Solo: Rythym guitar plays verse

e--5----5---5---5---5---5---5-------------------|
b--5----5---5---5---5---5---5---5--5--5-5-------|
g--7^^--7^^-7^^-7^^-7^^-7^^-7^^-7^-7^-7-7-7~----|
d-----------------------------------------------|
a-----------------------------------------------|
e-----------------------------------------------|


e-----------------------------------------------------------------|
b-----------------------------------------------------------------|
g--------5h7-7^^vp5-5-------------------5h7-7^^vp5-5--------------|
d--7p5h7---------------5-5-5-5----7p5h7--------------7------------|
a----------------------x-x-x-x-------------------------7p6p5------|
e----------------------3-3-3-3-------------------------------8p5--|
"GO!"

e-------------------------------------------------------------|
b-------------------------------------------------------------|
g--------5h7-7^^vp5-\---------------------5h7-7^^vp5-5-7^^----|
d--7p5h7------------\----5-5-5-5----7p5h7---------------------|
a------------------------x-x-x-x------------------------------|
e------------------------3-3-3-3------------------------------|


e-------------------------------------------------|
b-------------------8^^v-8p5----------------------|
g--------5h7-7^^vp5----------7p5------------------|
d--7p5h7-------------------------7~--7-10p9p7-9^--|
a-------------------------------------------------|
e-------------------------------------------------|


e--------------------------------------|
b--8^^v-5-8p5---5----------------------|
g-------------7---7p5------------------|
d---------------------7p5--------------|
a-------------------------7p6p5--------|
e-------------------------------8p5----|

Post Solo:

e--5----5----5----5----5-5-5-5-5-5-5-5-5--|
b--5----5----5----5----5-5-5-5-5-5-5-5-5--|
g--5----5----5----5----5-5-5-5-5-5-5-5-5--|
d--7----7----7----7----7-7-6-6-7-7-6-6-7--|
a--7----7----7----7----7-7-7-7-7-7-7-7-7--|
e--5----5----5----5----5-5-5-5-5-5-5-5-5--|

Chorus

Verse 1

Outro:

e--0----1----3----0-----------------------------------------|
b--1----1----0----0-----------------------------------------|
g--2----2----0----0-----------------------------------------|
d--2----3----0----2----7-7--6-6--5-5--4-4--3-3-3-3-3-3-3-3--|
a--0----3----2----2----x-x--x-x--x-x--x-x--x-x-x-x-x-x-x-x--|
e-------1----3----0----5-5--4-4--3-3--2-2--1-1-1-1-1-1-1-1--|
"(cant give you what I haven't got)
Take the car the house the dog the boat
The whole fucking lot!"


e--0----1----3----0----|
b--1----1----0----0----|
g--2----2----0----0----|
d--2----3----0----2----| x3
a--0----3----2----2----|
e-------1----3----0----|
"I cant give you what I haven't got
(can't give you what I haven't got)
I can't give you what I haven't got."

Ending:

e---------------------------------|
b---------------------------------|
g-----9-9-----7-----5-------------|
d-----7-7-----7-----7--9-9-9-9----|
a--7--7-7--7--7--7--7--7-7-7-7----|
e--5--5-5--5--5--5--5--5-5-5-5----|

-----------------------------------------------------------------------------

PRISONER OF SOCIETY

/= slide up
\= slide down
h= hammer on
p= pull off
pm= palm mute
x= dead note

Intro:

e---------------------------------|
b---------------------------------|
g-9---------------------2p0-2/----|
d-x-----6-----7-----8---2p0-2/----| x3
a-7-----6-----7-----8-------------|
e---0-0-4-0-0-5-0-0-6-0-----------|

e--------------------------------0--|
b--------------------------------0--|
g-9---------------------2p0-2p0--2--|
d-x-----6-----7-----8---2p0-2p0--2--|
a-7-----6-----7-----8------------0--|
e---0-0-4-0-0-5-0-0-6-0-------------|

Pre Verse:

e---------------------------------------------------------------|
b---------------------------------------------------------------|
g------------2--2---2-2-2--5--5---5-5-5--7--7---7-7-7--9-9--9---|
d------------2--2---2-2-2--5--5---5-5-5--7--7---7-7-7--9-9--9---|
a-Pickslide--0--0---0-0-0--3--3---3-3-3--5--5---5-5-5--7-7--7---|
e---------------------------------------------------------------|

Verse:

e-----------------------------------------------------------------|
b-----------------------------------------------------------------|
g-2--------------2---------------2--------------------------------|
d-2--------------2---------------2--------------------------------| x2
a-0--0-0-0-0-0-0-0--0-0-0-0-0-0--0-0-0-0-0-0-0-0-0-0-0-0-0--------|
e-----------------------------------------------------------------|
     pm.........    ............    ......................

e-----------------------------------------------------------------|
b-----------------------------------------------------------------|
g-5-------------------------------7-----------------9--9-9--9-9---|
d-5-------------------------------7-----------------9--9-9--9-9---|
a-3-3-3-3-3-3-3-3-3-3-3-3-3-3-3---5-5-5-5-5-5-5-5---7--7-7--7-7---|
e---------------------------------------------------0--0-0--0-0---|
    pm.........................     .............

e----------------------------------------------------------------|
b----------------------------------------------------------------|
g-2--------------2---------------2-------------------------------|
d-2--------------2---------------2-------------------------------|
a-0-0-0-0-0-0-0--0-0-0-0-0-0-0---0--0-0-0-0-0---3-2p0---2p0------|
e-----------------------------------------------------3-----3p0--|
    pm.........    ...........      .........

Chorus

e----------------------------------------------------------------|
b----------------------------------------------------------------|
g-2-2---2-2-2---2-2-2---2-2-2--2-5-5---5-5-5---5-5-5---5-5-5\----|
d-2-2---2-2-2---2-2-2---2-2-2--2-5-5---5-5-5---5-5-5---5-5-5\----|
a-0-0---0-0-0---0-0-0---0-0-0--0-3-3---3-3-3---3-3-3---3-3-3\----|
e----------------------------------------------------------------|

e-------------------------3-3-----------------------------------|
b-------------------------3-3--2-2---2-2-2---2-2-2--------------|
g-------------------------4-4--2-2---2-2-2---2-2-2--------------|
d-3-3---3-3-3---3-3-3---3-5-5--2-2---2-2-2---2-2-2--------------|
a-3-3---3-3-3---3-3-3---3-5-5--0-0---0-0-0---0-0-0---0-2-4-0----|
e-1-1---1-1-1---1-1-1---1-3-3-----------------------------------|


e--2-2---2-2-2---2-2-2--2-2--------------------------------------------|
b--3-3---3-3-3---3-3-3--3-3--------------------------------------------|
g--2-2---2-2-2---2-2-2--2-2--------3-3-3-3--3-3-3-3--3-3-3-3-----------|
d--0-0---0-0-0---0-0-0--0-0--------3-3-3-3--3-3-3-3--3-3-3-3-----------|
a-----------------------------3-0--1-1-1-1--1-1-1-1--1-1-1-1--1-0------|
e-----------------------------------------------------------------3-1--|

e----1-------1-------1-------1---1------------------------------------------|
b----1-------1-------1-------1---1------------------------------------------|
g----2-------2-------2-------2---2---9-9----9----9-9----9----9-9----9----9--|
d--3-3---3-3-3---3-3-3---3-3-3---3---9-9----9----9-9----9----9-9----9----9--|
a--3-3---3-3-3---3-3-3---3-3-3---3---7-7----7h8--7-7----7h8--7-7----7h8--7--|
e--1-1---1-1-1---1-1-1---1-1-1---1---0-0----0----0-0----0----0-0----0----0--|


Pre-verse

e-----------------------------------|
b-----------------------------------|
g--9----------------------2p0-2\----|
d--x-----6-----7-----8----2p0-2\----| x2
a--7-----6-----7-----8--------------|
e----0-0-4-0-0-5-0-0-6-0------------|


Verse

Chorus

Bridge

e-------------------------------|
b-2-2-3-3-2-2-------------------|
g-2-2-3-3-2-2-------------------|
d-2-2-3-3-2-2-------0h2p0-------| x2
a-0-0-0-0-0-0--0h2h3------3p2---|
e-------------------------------|

e-------------------------------|
b--3-3-4-4-3-3------------------|
g--2-2-3-3-2-2--------0h2p0-----|
d--0-0-5-5-0-0--0h2h3------3p2--|
a-------------------------------|
e-------------------------------|


e------------------------------------------|
b-2-2-3-3-2-2------------------------------|
g-2-2-3-3-2-2-------------------1-1-2-2----|
d-2-2-3-3-2-2--------0h2p0------2-2-3-3----|
a-0-0-0-0-0-0--0h2h3-------2p0--2-2-3-3----|
e-------------------------------0-0-1-1----|

Solo: Hold the bend Up for the first bit

e-----0-0-0-----0-0-0-----0-0-0----------------------5--------------------------|
b-----0-0-0-----0-0-0-----0-0-0--0-------------------5--7^---7^v-5---5^---------|
g--3^-3-3-3--3^-3-3-3--3^-3-3-3--3^v\2p0-2p0---0--------7^---7^v-5-0-5^---------|
d--------------------------------------------2---------------------0-----7p5-7--|
a-------------------------------------------------\7----------------------------|
e-------------------------------------------------------------------------------|

e--------5-----6-----5-----4-----5-----7-----8-----9------------|
b-------5-----6-----5-----4-----5-----6-----7-----8---9/10--x---|
g----5h6---6h7---5h6---4h5---5h6---6h7---7h8---8h9----------x---|
d---------------------------------------------------------------|
a---------------------------------------------------------------|
e---------------------------------------------------------------|

e-------------------------------------------------------------------------|
b-----12p10----10-------12p10----10-------12p10----10-------10------------|
g-----12p10----10h11----12p10----10h11----12p10----10h11----10h11---------|
d--12-------12-------12-------12-------12-------12-------12--------12-12--|
a-------------------------------------------------------------------------|
e-------------------------------------------------------------------------|

e-------------------------------------------------------------12-15-14-12-----------------|
b----------------------------------------------------12-13-15-------------15-14-13-12-----|
g-------------------------9h10p9----9-10-12-9--11/14----------------------------------14--|
d-------9h10p9----9-10-12--------12-------------------------------------------------------|
a-10\12--------12-------------------------------------------------------------------------|
e-----------------------------------------------------------------------------------------|

e-----------------------------------------------------------------|
b-----------------------------------------------------------------|
g--9------10------12------14------14------15------17------19------|
d--x-(8x)--x-(8x)--x-(8x)--x-(8x)--x-(8x)--x-(8x)--x-(8x)--x-(8x)-|
a--7-------8------10------12------12------13------15------17------|
e--0-------0-------0-------0-------0-------0-------0-------0------|

e-12------13-------15-------17--------------------------|
b--x-(8x)--x-(8x)---x-(8x)---x-(8x)---------------------|
g--9------10-------12-------14--------9-9-9-9-9-9-9-9\--|
d-------------------------------------9-9-9-9-9-9-9-9\--|
a-------------------------------------7-7-7-7-7-7-7-7\--|
e-------------------------------------0-0-0-0-0-0-0-0---|

Last Verse:

e--------------------------------------------------------|
b--------------------------------------------------------|
g-2--2--2--2--2--2--2--2-2-------5--5--5--5--7--7--7--7--|
d-2--2--2--2--2--2--2--2-2-(2x)--5--5--5--5--7--7--7--7--|
a-0--0--0--0--0--0--0--0-0-------3--3--3--3--5--5--5--5--|
e--------------------------------------------------------|

e---------------------------------------------------------|
b---------------------------------------------------------|
g-2--2--2--2--2--2--2--2-2--------5--5--5--5--7--7--7--7--|
d-2--2--2--2--2--2--2--2-2-(3x)---5--5--5--5--7--7--7--7--|
a-0--0--0--0--0--0--0--0-0--------3--3--3--3--5--5--5--5--|
e---------------------------------------------------------|

e--5-5--------5-----5----------------|
b--5-5--5--5--5--5--5-5--------------|
g-------7^-7^----7^---5--7^v-5-------|
d-------------------------------7-7--|
a------------------------------------|
e------------------------------------|

Last Chorus:

e--------------------------------------------------------------------|
b--------------------------------------------------------------------|
g--2-2-------2---------2---------2--5-5-------5---------5---------5--|
d--2-2--2-2--2--2-2-2--2--2-2-2--2--5-5--5-5--5--5-5-5--5--5-5-5--5--|
a--0-0--0-0--0--0-0-0--0--0-0-0--0--3-3--3-3--3--3-3-3--3--3-3-3--3--|
e--------------------------------------------------------------------|
        pm.     .....     .....          ...     ....      .....

e-----------------------------------------------------------0-0-0-0--|
b-----------------------------------------------------------2-2-2-2--|
g-----------------------------------2-2-2-2-2-2-2-2-2-2-2-2-2-2-2-2--|
d--3-3-------3---------3---5-5-5-5--2-2-2-2-2-2-2-2-2-2-2-2-2-2-2-2--|
a--3-3--3-3--3--3-3-3--3---5-5-5-5--0-0-0-0-0-0-0-0-0-0-0-0-0-0-0-0--|
e--1-1--1-1--1--1-1-1--1---3-3-3-3-----------------------------------|
        pm.     .....      ........................

e-----------------------------------1--1--1--1-1-1----0-----------------|
b-7--7--7--7-7-7---3--3--3--3-3-3---1--1--1--1-1-1----0-----------------|
g-7--7--7--7-7-7---3--3--3--3-3-3---2--2--2--2-2-2----1-----------------|
d-7--7--7--7-7-7---3--3--3--3-3-3---3--3--3--3-3-3----2-----------------|
a-5--5--5--5-5-5---1--1--1--1-1-1---3--3--3--3-3-3----2-----------------|
e-----------------------------------1--1--1--1-1-1----0------pickslide--|

Outro
e-------------------------------|
b-------------------------------|
g--9--9----9-9--------------9---|
d--9--9----9-9----(7x)------9---|
a--7--7h8--7-7h8------------7---|
e--0--0----0-0--------------0---|

-----------------------------------------------------------------------------

Roll On - The Living End

h= hammer on
p= pull of
^= bend
^^= bend up 2 frets
^v= bend up, then bring it back down

Intro:

e----------------------------------------|
b-------------10-----------10------------|
g-----------6-9----------6-9-------------|  Repeat as needed
d--7-7-7-7--7-7--7-7-7-7-7-7-------------|
a--0-0-0-0--0-0--0-0-0-0-0-0-------------|
e----------------------------------------|

Chorus:

e------------------------------------------3--3-3----------3--3---|
b------------------------------------------0--0-0----------3--0---|
g--5--5------------5--5------------5--5-5--0--0-0--2--2----4--0---|
d--5--5----3--3-3--5--5----3--3-3--5--5-5--0--0-0--2--2----3--0---| x2
a--3--3----3--3-3--3--3----3--3-3--3--3-3--2--2-2--0--0----3--2---|
e-------0--1--1-1-------0--1--1-1----------3--3-3-------0--1--3---|

Intro

Verse:

e--------------------------------------------------------------------|
b--------------------------------------------------------------------|
g---2-2-----2--2-2-2-2-------------5-5-5-5--7-7-7-7--2---------------|
d---2-2-2-2-2--2-2-2-2-4-2-5--4-2--5-5-5-5--7-7-7-7--2--4--2-2-4-2---| x2
a-3-0-0-0-0-0--0-0-0-0-0-0-0--0-0--3-3-3-3--5-5-5-5--0--0--0-0-0-0---|
e--------------------------------------------------------------------|

Chorus

Intro

Verse

Solo:

e--7^-------------------------------------|
b--8^-------------------------------------|
g-----9-9-------7h9p7---7-----------------|
d-----------7h9-------9---9-8-7s5---7-5^--|
a---------------------------------7-------|
e-----------------------------------------|

e-------------------------------------------------------|
b------------------------------------6--6-6-------------|
g--------------------------5--5-5-5-------------5-7-7^--|
d----------------7--7-7-7---------------------7---------|
a------8--8-8-8-----------------------------------------|
e--0----------------------------------------------------|

This next bit is played really quick

e--5----------------------------------|
b----8p5---8p5-----5------------------|
g--------7-----7p5---7p5---7p5--------|
d------------------------7-----7p5h7--|
a-------------------------------------|
e-------------------------------------|

e---8------8---8---8---8---8---8---8---8---8---8---8---8---8--|
b---8h10--10---8--10---8--10--11---8--10--11---8--10--11---8--|
g--10-----10--10--10--10--10--10--10--10--10--10--10--10--10--|
d-------------------------------------------------------------|
a-------------------------------------------------------------|
e-------------------------------------------------------------|

e-------15----------------------------------------|
b--15^^-----15^v--12--15--15^^-15^^-15^^-15^-15---|
g-------------------------------------------------|
d-------------------------------------------------|
a-------------------------------------------------|
e-------------------------------------------------|

Bridge: (Do you really care, why we're standing there)

e----------------------------------|
b----------------------------------|
g--2-----2------5-5-5-5-7-7-7-7-2--|  x2
d--2-----2------5-5-5-5-7-7-7-7-2--|
a--0-----0------3-3-3-3-5-5-5-5-0--|
e----------------------------------|

Next is just bass, guitar kicks in at
"We can see you're all expandable, when all is said and done"

e--------------------------------------|
b--------------------------------------|
g--------3-3-3-3-5-5-5-5------7--7-----|
d--5-----3-3-3-3-5-5-5-5-5----7--7--5--|
a--5-----1-1-1-1-3-3-3-3-5----5--5--5--|
e--3---------------------3----------3--|


Chorus

Intro

Outro: Guitar in backround

e--5---------5------|
b-------------------|
g------2---------2--|
d-------------------|
a-------------------|
e-------------------|

Main Guitar

e--------------------------------------------------------------------|
b--------------------------------------------------------------------|
g-----------------------------------------------------------3-----2--|
d--7-7-7-7-5-5-5-5-4-4-4-4-3-3-3-3-7-7-7-7-5-5-5-5-4-4-4-4--3--2--2--|
a--0-0-0-0-0-0-0-0-0-0-0-0-0-0-0-0-0-0-0-0-0-0-0-0-0-0-0-0--1--2--0--|
e--------------------------------------------------------------0-----|

-----------------------------------------------------------------------------

WEST END RIOT

Intro:
Guitar 1
e-0-0-0-0-0-0-0-0---7-0---7-0---7----|
b-8-8-8-7-7-7-8-8-------8-----8------|
g------------------------------------|
d------------------------------------| x4
a------------------------------------|
e------------------------------------|

Guitar 2
e--7-7-7----7-7-7----7-7-7----7-7-7---------|
b--8-8-8----7-7-7----8-8-8----7-7-7---------|
g--9-9-9----8-8-8----9-9-9----8-8-8---------|
d--9-9-9----9-9-9----9-9-9----9-9-9--~~~~~~-|
a--7-7-7----9-9-9----7-7-7----9-9-9--~~~~~~-|
e-----------7-7-7-------------7-7-7--~~~~~~-|
                                    Pickslide

Guitar 1
e--0-0-0-0-0-0-0-0-0-0----------------------------------------------|
b--8-8-7-7-5-5-3-3-0-0----------------------------------------------|
g----------------------2-2-0-0--------------------------------------|
d------------------------------4-4--2-2---------5-4-2-2---------5-4-| x2
a---------------------------------------2-2-3-3---------2-2-3-3-----|
e-------------------------------------------------------------------|

Guitar 2
e-----------------------------------------------------------------------|
b-----------------------------------------------------------------------|
g-----------------------------------------------------------------------|
d-----------------------------------------------------------------------| x2
a--7-7---------10-9-7-7---------10-9-7-7---------10-9-7-7--------10-9---|
e------7-7-8-8----------7-7-8-8----------7-7-8-8----------7-7-8-8-------|
   pm...............................|

Verse:

e--0--------------7-7------------------------------------------------------------------|
b--0--------------8-8------------------------------------------------------------------|
g--0--------------9-9------------------------------------------------------------------|
d--2-let it ring--9-9------------------------------------------------------------------|
a--2--------------7-7-----------10-9-7-7---------10-9-7-7---------10-9-7-7--------10-9-|
e--0--------------0-0---7-7-8-8----------7-7-8-8----------7-7-8-8----------7-7-8-8-----|
                        pm........................................................
There's a kid who was born and was raised in the west...

e----0---------------------------|
b----0---------------------------|
g----0---------------------------|
d--2-2---------------------------| x3
a--2-2-2-3-3---------2-2-3-3-----|
e--0-0-------3-2-0-0---------3-2-|
This time...

e---------7--------7--------7--2-2-2-2-2-2-2-2--|
b---------7--------7--------7--3-3-3-3-3-3-3-3--|
g---------7--------7--------7--4-4-4-4-4-4-4-4--|
d--8--9-9---8--9-9---8--9-9----4-4-4-4-4-4-4-4--|
a--8--9-9---8--9-9---8--9-9----2-2-2-2-2-2-2-2--|
e--6--7-7---6--7-7---6--7-7---------------------|
Ba-ttle ground...

Chorus:

e-------------------------------------------------------------|
b-------------------------------------------------------------|
g--9---------12--9---------12--9---------12---7-7-7-7-7-7-7-7-|
d--9--9--10--12--9--9--10--12--9--9--10--12---7-7-7-7-7-7-7-7-| x2
a--7--9--10--10--7--9--10--10--7--9--10--10---5-5-5-5-6-6-6-6-|
e--0--7--8----------7--8----------7--8------------------------|


e------2--2----0--2--3----------0----------3--3-------------------------------7----------------------|
b------3--3----0----------------1----------3--3-------------------------------8--7-------------------|
g--4-4-4--4----0----------------0----------0--0---2-2-2--4-4-4--5-5-5--7-7-7--9--7-------0-2-2^v-0---|
d--4-4-4--4----2----------------2----------0--0---2-2-2--4-4-4--5-5-5--7-7-7--9--7---0h2-----------2-|
a--2-2-2--2----2--------0h2-3-3-3--3p0-----2--2---0-0-0--2-2-2--3-3-3--5-5-5--7--5-------------------|
e------------0-0-----------------------3-3-3--3-------------------------------0----------------------|
                                                  pm.    ...    ...    ...
Verse

Chorus

Pre Solo:

e------------------------------------------------------------------|
b------------------------------------------------------------------|
g----------5-5--5----------5-5--5----------5-5--5------------------|
d--5-5--5--5-5--5--5-5--5--5-5--5--5-5--5--5-5--5--5-5--5----------|
a--5-5--5--3-3--3--5-5--5--3-3--3--5-5--5--3-3--3--5-5--5----0h2---|
e--3-3--3----------3-3--3----------3-3--3----------3-3--3--3-----3-|
   pm.    ...|     ...|    ...|    ...|    ...|    ...|

e---------------------------------------------------------2-2-2-2-2---|
b---------------------------------------------------------3-3-3-3-3---|
g----------7-7--7----------7-7--7----------7-7--7---4-4-4-4-4-4-4-4---|
d--7-7--7--7-7--7--7-7--7--7-7--7--7-7--7--7-7--7---4-4-4-4-4-4-4-4---|
a--7-7--7--5-5--5--7-7--7--5-5--5--7-7--7--5-5--5---2-2-2-2-2-2-2-2---|
e--5-5--5----------5-5--5----------5-5--5-----------------------------|
   pm.     ...     ...     ...     ...     ...      .....


e--7-----------------------------------------------|
b--8-----------------------------------------------|
g--9----4----5----7-7-7-7-7-7-7-7-7-7-7-7-7-7-7-7--|
d--9----4----5----7-7-7-7-7-7-7-7-7-7-7-7-7-7-7-7--|
a--7----2----3----5-5-5-5-5-5-5-5-6-6-6-6-6-6-6-6--|
e--0-----------------------------------------------|


Solo:

Guitar 1
e---------------------------------------------------------|
b-----------3----------/4-3-------------------------------|
g--0--0h2h3---3p2-0--0---------------------3p2p0----------|
d-----------------------------------0-3-0--------4~--5\---|
a---------------------------------1-----------------------|
e-----------------------------3-3-------------------------|

e--3-3-3-5-5-5-6-6-6-8-8-8-10h11p10--11-11-11-13-13-13-15-15-15-17-17-17-17h18p17--|
b----------------------------------------------------------------------------------|
g----------------------------------------------------------------------------------|
d----------------------------------------------------------------------------------|
a----------------------------------------------------------------------------------|
e----------------------------------------------------------------------------------|

e--------------------------------|
b--------------------------------|
g--5--5--8-7---10-9--10-13---12--|
d--x--x--x-x---x--x--x--x----x---|
a--3--3--6-5---8--7--8--11---10--| x2
e--------------------------------|

e-----10-8--------10---10----------15------14------13------12-----11--------|
b--\8------8-7--8----------8-7--8-------------------------------------------|
g------------9--9------------9--9-----12-0----11-0----10-0----9-0----8-0-0--|
d---------------------------------------------------------------------------|
a---------------------------------------------------------------------------|
e---------------------------------------------------------------------------|

e------------------------------------------------------------x-x-x-x-x-x-x--|
b------------------------------------------------------------x-x-x-x-x-x-x--|
g------------------------------------------------------------x-x-x-x-x-x-x--|
d--0-0-0-0-0-0-0-0-0--0--0--0--0--0--0--0--0-0-0-0-0-0-0-0---x-x-x-x-x-x-x--|
a--5-5-5-5-9-9-9-9-12-12-12-12-15-15-15-15-6-6-6-6-9-9-9-9---x-x-x-x-x-x-x--|
e------------------------------------------------------------x-x-x-x-x-x-x--|
   pm.....................................................


e--0-0-0-0-0-0-0-0-0-0--------------0-0-0-0-0-0-0-0-0-0--------------0--|
b--8-8-7-7-5-5-3-3-0-0--------------8-8-7-7-5-5-3-3-0-0--------------0--|
g----------------------2-2-0-0--------------------------2-2-0-0------0--|
d------------------------------4-4------------------------------4-4--2--|
a--------------------------------------------------------------------2--|
e--------------------------------------------------------------------0--|

Guitar 2: Rythym

e---------------------------------------------------------|
b---------------------------------------------------------|
g--------12----------10-----------------------------------|
d---x--x--x--x--x--x--x--x--x--x-13--x--x--x-12--x--(x2)--|
a--10-10-10-10-10-10-10-10-10-10-10-10-10-10-10-10--------|
e---------------------------------------------------------|
   pm...    ........    ........    ........    ..

e-----------------------------------------|--3--3---------------------------------|
b-----------------------------------------|--4--4---------------------------------|
g-----------------------------------------|--5--5---------------------------------|
d------5-------3--------------------(x2)--|--5--5--5-5-5-5-5-5-5-5-5-5-5-5--(x2)--|
a--x-x-x-x-x-x-x-x-x-x-6-x-x-x-5-x--------|--3--3--3-3-3-3-3-3-3-3-3-3-3-3--------|
e--3-3-3-3-3-3-3-3-3-3-3-3-3-3-3-3--------|---------------------------------------|
   pm.   .....   .....   .....   .                 .......................

e-----------------------------------------|---------------------------------------------------|
b-----------------------------------------|---------------------------------------------------|
g-----------------------------------------|---------------------------------------------------|
d------5-------3--------------------(x2)--|--0-0-0-0-0-0-0-0-0-0-0-0-0-0-0-0-0-0-0-0-0-0-0-0--|
a--x-x-x-x-x-x-x-x-x-x-6-x-x-x-5-x--------|--5-5-5-5-5-5-5-5-5-5-5-5-5-5-5-5-6-6-6-6-6-6-6-6--|
e--3-3-3-3-3-3-3-3-3-3-3-3-3-3-3-3--------|---------------------------------------------------|
   pm.   .....   .....   .....   .


Bridge:

e--------------------------------------------------------------------------7\--|
b-----------------------------------------------------------------------7--8\--|
g-----------------------------------------------------------------------7--9\--|
d--2-2-----------------------------2-2----------------------------------7--9\--|
a----------2-2-----3-3-----5-5-------------2-2-----3-3-----5-5-----(x3)-5--7\--|
e------0-0-----0-0-----0-0-----0-0-----0-0-----0-0-----0-0-----0-0---------0\--|
       pm.     ...     ...     ...     ...     ...     ...     ...

Guitar 1                                Guitar 2
e------------------------------|        e--3-3-3-3-2-2-2-2-0-0-0-0----------|
b------------------------------|        b--------------------------3-3-3-3--|
g--9-9-9--4-4-4--5-5-5--7-7-7--|        g-----------------------------------|
d--9-9-9--4-4-4--5-5-5--7-7-7--| x3     d-----------------------------------| x3
a--7-7-7--2-2-2--3-3-3--5-5-5--|        a-----------------------------------|
e------------------------------|        e-----------------------------------|
   pm.    ...    ...    ...                pm..............................


e--3---2---0-----------------|
b--3---3---0-----------------|
g--4---4---0-----------------|
d--5---4---2-----------~~~~--|
a--5---2---2-----------~~~~--|
e--3-------0-----------~~~~--|
                     Pickslide


Last Chorus:

e-------------------------------------------------------------|
b-------------------------------------------------------------|
g--9---------12--9---------12--9---------12---7-7-7-7-7-7-7-7-|
d--9--9--10--12--9--9--10--12--9--9--10--12---7-7-7-7-7-7-7-7-| x2
a--7--9--10--10--7--9--10--10--7--9--10--10---5-5-5-5-6-6-6-6-|
e--0--7--8----------7--8----------7--8------------------------|

e------2--2----0--2--3----------0----------3--3---|
b------3--3----0----------------1----------3--3---|
g--4-4-4--4----0----------------0----------0--0---|
d--4-4-4--4----2----------------2----------0--0---|
a--2-2-2--2----2--------0h2-3-3-3--3p0-----2--2---|
e------------0-0-----------------------3-3-3--3---|

e------------------------------------------------------------------------------------------|
b------------------------------------------------------------------------------------------|
g--2-2-2--4-4-4--5-5-5--7-7-7--2-2-2--4-4-4--5-5-5--7-7-7--2-2-2-2-4-4-4-4-5-5-5-5-7-7-7-7-|
d--2-2-2--4-4-4--5-5-5--7-7-7--2-2-2--4-4-4--5-5-5--7-7-7--2-2-2-2-4-4-4-4-5-5-5-5-7-7-7-7-|
a--0-0-0--2-2-2--3-3-3--5-5-5--0-0-0--2-2-2--3-3-3--5-5-5--0-0-0-0-2-2-2-2-3-3-3-3-5-5-5-5-|
e------------------------------------------------------------------------------------------|
   pm.    ...    ...    ...    ...    ...    ...    ...


Finish on:

e--0--|
b--0--|
g--0--|
d--2--|
a--2--|
e--0--|

-----------------------------------------------------------------------------

         SECOND SOLUTION

Intro:
   Bm
e--------2-2--2--|      e---------2-2-2--|
b-------3--3--3--|      b---------3-3-3--|
g--4---4---4--4--|      g------4--4-4-4--|
d--4--4----4--4--| x7   d------4--4-4-4--|
a--2-2-----2--2--|      a----0-2--2-2-2--|
e----------------|      e----------------|
   Bm   F#  G   C             pm
e-------------------|
b-------------------|
g--4-4---------5-5--|
d--4-4-4-4-5-5-5-5--| x4
a--2-2-4-4-5-5-3-3--|
e------2-2-3-3------|

Verse:

e---------------------------|
b---------------------------|
g--4--------------------5---|
d--4--------------------5-4-| x3
a--2--2-2-2-2-2-2-2-2-2-3-4-|
e-------------------------2-|
      pm...............

e--------------------2---2---2---2-----2-2-2-2-2---|
b--------------------2---2---2---2-----2-2-2-2-2---|
g--4-2-------2-4-----3---3---3---3-----3-3-3-3-3---|
d--4-2-5-4-5-2-4---4-4-4-4-4-4-4-4-4-4-4-4-4-4-4---|
a--2-0-5-4-5-0-2---4-4-4-4-4-4-4-4-4-4-4-4-4-4-4---|
e------3-2-3-------2-2-2-2-2-2-2-2-2-2-2-2-2-2-2---|

Chorus:

e---------2--2---------2----------9--7------7---|
b--------3---3--------3----------8---8------8---|
g--4----4----4--4----4----------9----9------9---|
d--4---4-----4--4---4----------9-----9------9---|
a--2--2------2--2--2------7---7------7--7---7---|
e-------------------------0--0-------0--0---0---|

e---------2--2---------2--2----2---2---2-2---|
b--------3---3--------3---3----2---2---2-2---|
g--4----4----4--4----4----4----3---3---3-3---|
d--4---4-----4--4---4-----4--4-4-4-4-4-4-4---|
a--2--2------2--2--2------2--4-4-4-4-4-4-4---|
e----------------------------2-2-2-2-2-2-2---|

e---------2--2--2---------3--3--3-2--2--2----2-2-2-2-2-2--|
b--------3---3--3---------0--0--0-3--3--3----2-2-2-2-2-2--|
g--4----4----4--4----4-2--0--0--0-2--2--2----3-3-3-3-3-3--|
d--4---4-----4--4----4-2--0--0--0-0--0--0--4-4-4-4-4-4-4--|
a--2--2------2--2----2-0--2--2--2----------4-4-4-4-4-4-4--|
e-------------------------3--3--3----------2-2-2-2-2-2-2--|

Intro: Just play Bm like the very start

Verse

Chorus

Pre Solo:

e----7---7---7---7-----------------------------------------|
b----7---7---7---7-----------------------------------------|
g----------------------------------------------------------|
d--9---9---9---9----9-9-9-7-7-7-5-5-5-4-4-4-5-5-5-7-7-7-9--|
a--9---9---9---9----9-9-9-7-7-7-5-5-5-4-4-4-5-5-5-7-7-7-9--|
e--7---7---7---7----7-7-7-5-5-5-3-3-3-2-2-2-3-3-3-5-5-5-7--|

Solo:

e-----7-----------------|----------------------15-14-|
b-----7-9^v--9-9^v------|--/12~--10------------------|
g--/4---9^v--9-9^v------|-----------12-9h12-12-------|
d------------------9-9~-|----------------------------|
a-----------------------|----------------------------|
e-----------------------|----------------------------|

e------------------------------------|
b--12---10---------------------------|
g----------11p10p9-----9--7----------|
d-----------------12p9------9-7-7/9--|
a------------------------------------|
e------------------------------------|

e-----------------------------------------------9\--|
b--------------------------------------------11-----|
g------------------------------9-9-9-9-11-11--------|
d----------8-8-8-8-11-11-11-11----------------------|
a--9-9-9-9------------------------------------------|
e---------------------------------------------------|
   pm.........................


This next bit is extremly quick

e--10^12-----10-------------------------------------------------------------------------------------|
b---------10----12p10-12p10----10-------------------------------------------------------------------|
g---------------------------11----11p9-11p9----9----------------------------------------------------|
d-------------------------------------------12---12p9-12p9----9-------------------------------------|
a----------------------------------------------------------12---12p9-12p9----9----------------------|
e-------------------------------------------------------------------------12---12p10-12p10-7-10p7p0-|


e------10-----10-------------|------------2--2----------------------2--2--2-|
b--10--10-10--10-10----------|------------2--2--4^v^----------------2--2--2-|
g--12^----12^----12^v-10-----|------------3--3--4^v^----------------3--3--3-|
d------------------------12\-|---4--4-4-4-4--4----------4--4-4-4-4--4--4--4-|
a----------------------------|---4--4-4-4-4--4----------4--4-4-4-4--4--4--4-|
e----------------------------|-0-2--2-2-2-2--2--------0-2--2-2-2-2--2--2--2-|
                              pm ........             ..........


e-------------------|
b-------------------|
g--4-4---------5-5--|
d--4-4-4-4-5-5-5-5--| x4
a--2-2-4-4-5-5-3-3--|
e------2-2-3-3------|


Verse


Chorus


Outro:
Is just played in Bm G F#
At the very end, play:

e-----------------------------------------|
b-----------------------------------------|
g-----------------------------------------|
d--9-9-9-7-7-7-5-5-5-4-4-4-5-5-5-7-7-7-9--|
a--9-9-9-7-7-7-5-5-5-4-4-4-5-5-5-7-7-7-9--|
e--7-7-7-5-5-5-3-3-3-2-2-2-3-3-3-5-5-5-7--|

-----------------------------------------------------------------------------

BRINGING IT ALL BACK HOME

Intro/Verse:
e--------------------------------------------|
b--------------------------------------------|
g----5-------5--5---5----5-------5--5---5----|
d---5---5--5-5--5-5-5--5-5--5--5-5--5-5-5----|
a--3----3--3-3--3-3-3--3-3--3--3-3--3-3-3----|
e-----------------------------------------3--|

e--------------------------------------------|
b--------------------------------------------|
g----5-------5--5---5----5-------5--5---5----|
d---5---5--5-5--5-5-5--5-5--5--5-5--5-5-5----|
a--3----3--3-3--3-3-3--3-3--3--3-3--3-3-3----|
e-----------------------------------------3--|
"You wanna leave, no it isn't right"

e---------------------------------------|
b---------------------------------------|
g----5-------5-------------2--2---------|
d---5---5--5-5--5--3--3--3-3--3--3-3----|
a--3----3--3-3--5--3--3--3-3--3--3-3----|
e---------------3--1--1--1-1--1--1-1----|
"But it's up to you,
the decision's not mine"

e-----------------5--5--5-5--7-7-7--7--7---1--3-------------------------|
b-----------------5--5--5-5--8-8-8--8--8---1--3-------------------------|
g--4--4--4-4-4-4--5--5--5-5--9-9-9--9--9---2--4----5-------5--5---5-----|
d--5--5--5-5-5-5--7--7--7-7--9-9-9--9--9---3--5---5---5--5-5--5-5-5-----|
a--5--5--5-5-5-5--7--7--7-7--7-7-7--7--7---3--5--3----3--3-3--3-3-3-----|
e--3--3--3-3-4-4--5--5--5-5--0-0-0--0--0-0-1--3----------------------3--|
"If I ever imagined you leaving my side,
I'd die"

Repeat Verse, more open chords this time

Pre Chorus

e-----|------------------------------------------x-x--8/10-8--|
b-5~~-|------------------------------------------x-x--8/10-8--|
g-5~~-|------------------------------------------x-x----------|
d-5~~-|--8--8--8--8--8--8--8--8--10--10-------10--------------| x2
a-3~~-|--8--8--8--8--8--8--8--8--10--10-------10--------------|
e-----|--6--6--6--6--6--6--6--6--8---8---8h10-----------------|
"You say that there's nothing wrong at all
Sayin' that it's just like talkin' to a wall

e--0--0--0--1p0-0-1-0--5-----------|
b--2--2--2--2---2-2-2--5-----------|
g--0--0--0--0---0-0-0--6-----------|
d--2--2--2--2---2-2-2--5------7----|
a--0--0--0--0---0-0-0--7----x-7----|
e----------------------5----x-5----|
"And the phone wont stop ringin'
But nobody calls"

Chorus:

e-----------------------------------------------|
b-----------------------------------------------|
g---------------------------------------7--7----|
d--8--8--x-x--3-3-3--3--x-x--7--7--x-x--7--7-7--|
a--8--8--x-x--3-3-3--3--x-x--7--7--x-x--5--5-7--|
e--6--6--x-x--1-1-1--1--x-x--5--5--x-x-------5--|
"Bringin' it all back home
To the one that I left alone"

e------------------------------------------------------------|
b------------------------------------------------------------|
g---------------------------------------7--7-7-7--7-7-7--7---|
d--8--8--x-x--3-3-3--3--x-x--7--7--x-x--7--7-7-7--7-7-7--7---|
a--8--8--x-x--3-3-3--3--x-x--7--7--x-x--5--5-0-4--4-0-3--3---|
e--6--6--x-x--1-1-1--1--x-x--5--5--x-x---------------------0-|
"Bringin' it all back home
Waiting to know, is it too late to go"

e--1--1--1--1--1--1--1--1--|
b--1--1--1--1--1--1--1--1--|
g--1--1--1--1--1--1--1--1--|
d--3--3--3--3--3--3--3--3--|
a--3--3--3--3--3--3--3--3--|
e--1--1--1--1--1--1--1--1--|
"And bring it all back home"

Post Chorus: Rythym plays the Verse.
             The lead kinda kicks in halfway through

e--------------------5-------5------------------7-----|
b--3-5--3-5--3-5--5-----6--6---6-------8--------9-----|
g--5-5--5-5--5-5--5------------------7---7---10-10----|
d--5-5--5-5--5-5--5---------------/9-------9----9-----|
a--3-3--3-3--3-3--3-----------------------------------|
e-----------------------------------------------------|

e--------------------------------------------------------|
b--10---12-13p12-10--15^^-------------------15-----13----|
g----------------------------------12-14^^(hold)V--12----|
d----------------------------12h14-----------------------|
a--------------------------------------------------------|
e--------------------------------------------------------|


Verse

Pre Chorus

Chorus

Post Chorus (try keep the G chord ringing)

e--3----------------|
b--3----------------|
g--0-------------0--|
d--0-------0-2-3----| x3
a--2-0-2-3----------|
e--3----------------|


Solo:

Rythym
e--------------------------------------------|
b--------------------------------------------|
g----5-------5--5---5----5-------5--5---5----|
d---5---5--5-5--5-5-5--5-5--5--5-5--5-5-5----|
a--3----3--3-3--3-3-3--3-3--3--3-3--3-3-3----|
e-----------------------------------------3--|

e---------------------------------------|
b---------------------------------------|
g----5-------5-------------2--2---------|
d---5---5--5-5--5--3--3--3-3--3--3-3----|
a--3----3--3-3--5--3--3--3-3--3--3-3----|
e---------------3--1--1--1-1--1--1-1----|

e-----------------5--5--5-5--7-7-7--7--7----|
b-----------------5--5--5-5--8-8-8--8--8----|
g--4--4--4-4-4-4--5--5--5-5--9-9-9--9--9----|
d--5--5--5-5-5-5--7--7--7-7--9-9-9--9--9----|
a--5--5--5-5-5-5--7--7--7-7--7-7-7--7--7----|
e--3--3--3-3-4-4--5--5--5-5--0-0-0--0--0-0--|

e--1--3--------4----------------|
b--1--3--------4----------------|
g--2--4--------5----------------|
d--3--5--------6-------------9--|
a--3--5--6--6--6--x-x--9--9--9--|
e--1--3--4--4--4--x-x--7--7--7--|
         pm..          ....

e--5--5--5-5--7-7-7--7--7---1--3---------|
b--5--5--5-5--8-8-8--8--8---1--3----5----|
g--5--5--5-5--9-9-9--9--9---2--4----5----|
d--7--7--7-7--9-9-9--9--9---3--5----5----|
a--7--7--7-7--7-7-7--7--7---3--5----3----|
e--5--5--5-5--0-0-0--0--0-0-1--3---------|


Lead
e--------------------------------------------------|
b--13-------------12----/13--10----10-8b--8\6-5----|
g--12^^--12--9h12----12---------12----9b--9\7-5----|
d-----------------------------------------------5--|
a--------------------------------------------------|
e--------------------------------------------------|

e--------------------------5----------------8--|
b-----------------------------6--6/8-(8^^)-----|
g-------------------5h7p5----------------------|
d--------5-7--7p5-7----------------------------|
a--7p5-7---------------------------------------|
e----------------------------------------------|

e--10---10-------------7-----------------------------|
b--10^^-10^^v-8-----9--9--8--10--12--13p12-10--15^^--|
g----------------10---10-----------------------------|
d----------------------------------------------------|
a----------------------------------------------------|
e----------------------------------------------------|

e---------------------------------------------------------------------|
b------------------15-----------------15-15---------------------------|
g--------12-14/16-----12--13-13-16-16-------13-13--13-----------------|
d--12h14----------------------------------------------15-12----12-15--|
a-----------------------------------------------------------14--------|
e---------------------------------------------------------------------|

e--------------------------------------------------|
b--10---12-13p12-10--12--13--15p13-12\--1--3--5----|
g---------------------------------------2--4--5----|
d---------------------------------------3--5--5----|
a---------------------------------------3--5--3----|
e--------------------------------------------------|

-----------------------------------------------------------------------------

   ALL TORN DOWN

Intro: x4, Palm muted first 2 times

e--------------------------------------------------------------------|
b----------5---------------5---------------5---------------4---------|
g------6-----6---------6-----6---------6-----6---------5-----5-------|
d----6---6-----6-----6---6-----6-----6---6-----6-----4---4-----4-----|
a--4-------------------------------------------------------------6---|
e----------------0-5-------------0-4-------------4-4-----------------|

Listen for timing, then play

e-------------------|
b-------------------|
g-------------------|
d--6-6-6-6-6-6-6-6--|
a--6-6-6-6-6-6-6-6--|
e--4-4-4-4-4-4-4-4--|

Pre Verse: Played twice

e--------------------------------------0--------0----0---------|
b-----------------9-9--7--5-5----------0--------4^5--5v4--2----|
g--6-6-4-6--6-6------------------2-2-2-2--2-2------------------|
d--6-6-4-6--6-6---6-6--4--2-2----2-2-2-2--2-2------------------|
a--4-4-4-4--4-4------------------0-0-0-0--0-0------------------|
e------------------------------0-------------------------------|

Verse: x2 All up strokes

e------4--4--4--4--4--4--4--4--5--5--5--5--5--5--5--5--|
b------5--5--5--5--5--5--5--5--5--5--5--5--5--5--5--5--|
g------6--6--6--6--6--6--6--6--6--6--6--6--6--6--6--6--|
d------6--6--6--6--6--6--6--6--7--7--7--7--7--7--7--7--|
a--2s4-------------------------------------------------|
e------------------------------------------------------|

Pre Chorus:

e-------0------------------4-4-4-4--|
b-------0------------------4-4-4-4--|
g-------0------------------5-5-5-5--|
d--2--2-2---2-2-2-2--6-6-6-6-6-6-6--|
a--2--2-2---2-2-2-2--6-6-6-6-6-6-6--|
e--0--0-0---0-0-0-0--4-4-4-4-4-4-4--|

Verse

Pre Chorus

Chorus:

e----------------------0-2-2s4s2-0----------------------------------|
b-------------------------------------------------------------------|
g--2-2-2-2-4-4-4-4-----1-2-2s4s2-1--2-2-2-2-4-4-4-4--9-9s8-9s6--6s4-|
d--2-2-2-2-4-4-4-4------------------2-2-2-2-4-4-4-4--9-9s8-8s6--6s4-|
a--0-0-0-0-2-2-2-2------------------0-0-0-0-2-2-2-2--7-7s6-6s4--4s2-|
e-------------------0--------------------------------0-0------------|

e-------------------4--|
b-------------------5--|
g--2-2-2-2-4-4-4-4--6--|
d--2-2-2-2-4-4-4-4--6--|
a--0-0-0-0-2-2-2-2--4--|
e----------------------|

Verse

Pre Chorus

Chorus

Bridge:

e-----------------------------------|
b-----------------------------------|
g--6-6-6-6-6-6-6-6-2-2-2-2-4-4-4-4--|
d--6-6-6-6-6-6-6-6-2-2-2-2-4-4-4-4--| x2
a--4-4-4-4-4-4-4-4-0-0-0-0-2-2-2-2--|
e-----------------------------------|
"You've got no reason"

Pre Chorus

Solo:

e---------------------------------------------------------------------|
b---------------------------------------------------------------------|
g----6-4-------------6-4-------------6-4------------------------------|
d--------6-7-6-4---------6-7-6-4---------6-7-6-4-7-6-4-7-6-4-7-6------|
a--4-------------7-4-------------7-0-----------------------------7-4--|
e---------------------------------------------------------------------|

e----------------------------------------------4-5-7-9--7--9--11--11^--11--9-----|
b----------------------------------4-5-7-4-5-7--------------------------------9--|
g--------4-----4-6p4---4h6---6p4h6-----------------------------------------------|
d--7-6-7-----6-------6-----------------------------------------------------------|
a--------------------------------------------------------------------------------|
e--------------------------------------------------------------------------------|


e----11-9h11p9-----------------------------------------------------|
b--9----------------------10-9----10-9----10-9----10-9----10-9-----|
g--9-----------11-9--------------------------------------------11--|
d--------------------9h11------11------11------11------11----------|
a------------------------------------------------------------------|
e------------------------------------------------------------------|

e--9------------------------------------------------------------------------4--5--|
b----12p9-------------------------------------------------------------2--4--------|
g---------11p9----11p9------11^v----------------------6s4-4-4-4s2-2-2-------------|
d--------------11------11p9------11p9-11--11-9--11--------------------------------|
a---------------------------------------------------0-----------------------------|
e---------------------------------------------------------------------------------|

Verse

Pre Chorus

Chorus

Bridge: played x4. On 4th time play

e----------------------------------------------------|
b----------------------------------------------------|
g--6-6-6-6-6-6-6-6-2-2-2-2-4-4-4-4-------------------|  Pause
d--6-6-6-6-6-6-6-6-2-2-2-2-4-4-4-4-6-6-6-6-6-6-6-6-6-|
a--4-4-4-4-4-4-4-4-0-0-0-0-2-2-2-2-6-6-6-6-6-6-6-6-6-|
e----------------------------------4-4-4-4-4-4-4-4-4-|


e-------------------------------------------------------------------|
b-------------------------------------------------------------------|
g--4-4-4-4-4-4-4-4-4-4-4-4-4-4-2-2----------------------------------|  X2
d--4-4-4-4-4-4-4-4-4-4-4-4-4-4-2-2-5-5-5-5-5-5-5-5-5-5-5-5-5-5-5-5--|
a--2-2-2-2-2-2-2-2-2-2-2-2-2-2-0-0-5-5-5-5-5-5-5-5-5-5-5-5-5-5-5-5--|
e----------------------------------3-3-3-3-3-3-3-3-3-3-3-3-3-3-3-3--|

Intro: twice, second time slows down

Outro:

e--------------4--|
b--------------5--|
g--------6-----6--|
d-----6-----6--6--|
a--4-----------4--|
e-----------------|

-----------------------------------------------------------------------------

PICTURES IN THE MIRROR

Intro:Guitar 1
e---------------------------------------------------|
b--3-3--3/5---5-5-5--------3-3--3-8\5--10--8\5-5----|
g--0-0--0/0---0-0-0--------0-0--0-0-0--0---0-0-0----|
d--0-0--x-x---x-x-x--(x2)--0-0--x-x-x--x---x-x-x----| x2
a--x-x--1/3---3-3-3--------x-x--1-6\3--8---6\3-5----|
e--3-3---------------------3-3----------------------|

The second time that's played,
Guitar 2 comes in:

e--------------------------------------------------|
b--------------------------------------------------|
g-------3/5--5-5-5-------------3-8--5--10--8--5-5--|
d--5-5--3/5--5-5-5--(x2)--5-5--3-8--5--10--8--5-5--|
a--5-5--1/3--3-3-3--------5-5--1-6--3--8---6--3-3--|
e--3-3--------------------3-3----------------------|

Verse:

e-------------------------------------------------------------|
b-------------------------------------------------------------|
g--5-------------------------------------------------------5--|
d--5-------------------------------------------------------5--|
a--3--3-3-3--3-3-3--3-3-3--3-3-3--3-3-3--3-3-3--3-3-3--3-3-0--|
e-------------------------------------------------------------|
      pm...  .....  .....  .....  .....  .....  .....  .....
"You know we try to make you"

e-----------------------------------------------------------|
b-----------------------------------------------------------|
g-------------------------------------------------------5---|
d-------------------------------------------------------5---|
a--0-0-0--0-0-0--0-0-0--0-0-0--0-0-0--0-0-0--0-0-0--0-0-x---|
e-------------------------------------------------------4---|
   pm...  .....  .....  .....  .....  .....  .....  .....
"Understand"

e------------------------------------------------------------------------------|
b------------------------------------------------------------------------------|
g-------------------------------------------------------5----------------------|
d-------------------------------------------------------5----------------------|
a-------------------------------------------------------3--3-3-3--3-3-3--3-3-3-|
e--4-4-4--4-4-4--4-4-4--4-4-4--4-4-4--4-4-4--4-4-4--4-4------------------------|
   pm..................................................    ...................
"We try to make you realise"

The second time through, Guitar 2 plays exactly the same thing.
Just with more distortion and volume :)

e-------------------------------------------------------------|
b-------------------------------------------------------------|
g--5-------------------------------------------------------5--|
d--5-------------------------------------------------------5--|
a--3--3-3-3--3-3-3--3-3-3--3-3-3--3-3-3--3-3-3--3-3-3--3-3-0--|
e-------------------------------------------------------------|
      pm...  .....  .....  .....  .....  .....  .....  .....
"Her fame is down and time is up"

e-----------------------------------------------------------|
b-----------------------------------------------------------|
g-------------------------------------------------------5---|
d-------------------------------------------------------5---|
a--0-0-0--0-0-0--0-0-0--0-0-0--0-0-0--0-0-0--0-0-0--0-0-x---|
e-------------------------------------------------------4---|
   pm...  .....  .....  .....  .....  .....  .....  .....
"But some how it don't seem enough"

e------------------------------------------------------------------------------|
b------------------------------------------------------------------------------|
g-------------------------------------------------------5----------------------|
d-------------------------------------------------------5----------------------|
a-------------------------------------------------------3--3-3-3--3-3-3--3-3-3-|
e--4-4-4--4-4-4--4-4-4--4-4-4--4-4-4--4-4-4--4-4-4--4-4------------------------|
   pm..................................................    ...................
"'Cos the world wouldn't lisen anymore"

Pre Chorus:Guitar 1

e-----------------------------------2-2-2-2-2-2-2-2-2-2-2-2-2-2-2-2--|
b-----------------------------------3-3-3-3-3-3-3-3-3-3-3-3-3-3-3-3--|
g--5-5-5-5-5-5-5-5-5-5-5-5-5-5-5-5--2-2-2-2-2-2-2-2-2-2-2-2-2-2-2-2--|
d--5-5-5-5-5-5-5-5-5-5-5-5-5-5-5-5--0-0-0-0-0-0-0-0-0-0-0-0-0-0-0-0--|
a--3-3-3-3-3-3-3-3-3-3-3-3-3-3-3-3-----------------------------------|
e--------------------------------------------------------------------|
"Caught by social evil.
Wasn't street-wise after all"

e--1-1-1-1-1-1-1-1-1-1-1-1-1-1-1-1--------------------------------------|
b--1-1-1-1-1-1-1-1-1-1-1-1-1-1-1-1--------------------------------------|
g--2-2-2-2-2-2-2-2-2-2-2-2-2-2-2-2--7^v-5--7^v-5--7^v-5--7^v-5--7^--7^--|
d--3-3-3-3-3-3-3-3-3-3-3-3-3-3-3-3--7^v-5--7^v-5--7^v-5--7^v-5--7^--7^--|
a-----------------------------------------------------------------------|
e-----------------------------------------------------------------------|
"Was she there at all?"

Guitar 2:

e---------------------------------------------------------------------------------------|
b---------------------------------------------------------------------------------------|
g-----5------5^v----5------5-5----8------8^v----8------8------10------10-----10------10-|
d---------------------------------------------------------------------------------------|
a--3-----3-3-----3-----3-3-----5-----5-5-----5-----5-5---7/8------8-8-----8------8-8----|
e---------------------------------------------------------------------------------------|

Chorus: Just one guitar

e---------------------------------------3-3-3-3-3-3-3-3-3-3-3-3-3--|
b---------------------------------------3-3-3-3-3-3-3-3-3-3-3-3-3--|
g--7--7--7--7--7-7-7-7-7-7-7-7-7--------4-4-4-4-4-4-4-4-4-4-4-4-4--|
d--7--7--7--7--7-7-7-7-7-7-7-7-7--5-5-5-5-5-5-5-5-5-5-5-5-5-5-5-5--|
a--5--5--5--5--5-5-5-5-5-5-5-5-5--5-5-5-5-5-5-5-5-5-5-5-5-5-5-5-5--|
e---------------------------------3-3-3-3-3-3-3-3-3-3-3-3-3-3-3-3--|
"Pictures in the mirror,
pictures she never knew"

e-------------------------------------------5-5-5-5-5-5-5-5-5-5-5-5---|
b-------------------------------------------5-5-5-5-5-5-5-5-5-5-5-5---|
g--7-7-7-7-7-7-7-7-7-7-7-7-7-7-7------------6-6-6-6-6-6-6-6-6-6-6-6---|
d--7-7-7-7-7-7-7-7-7-7-7-7-7-7-7------7-7-7-7-7-7-7-7-7-7-7-7-7-7-7---|
a--5-5-5-5-5-5-5-5-5-5-5-5-5-5-5------7-7-7-7-7-7-7-7-7-7-7-7-7-7-7---|
e---------------------------------3/5-5-5-5-5-5-5-5-5-5-5-5-5-5-5-5---|


(When it comes to Not such an ordinary life,
the guitar parts break into two again)


Guitar 1
e-------5--3--------1--1-0---------0--0-----5--5-5--5--5--5--5--5--5--5--5------------|
b-------5--3--------0--0-0---------2--2----5---5-5--5--5--5--5--5--5--5--5------------|
g-------4--4--------0--0-0---2-2-2-2--2---5----5-5--5--5--5--5--5--5--5--5--5-5-5-5-5-|
d--5--5-5--5--2-2-2-2--2-2---2-2-2-2--2--4-----4-4--3--3--3--3--0--0--0--0--5-5-5-5-5-|
a--5--5-5--5--2-2-2-2--2-2---0-0-0-0--0-------------------------------------3-3-3-3-3-|
e--3--3-3--3--0-0-0-0--0-0------------------------------------------------------------|
"Not such an ordinary life,
Pictures in the mirror."

Guitar 2:
e-------------------------------5----------5-----5--5--5--5--5--5--5--5-------------|
b---------------------------5----5------5---5----5--5--5--5--5--5--5--5-------------|
g------7------------9--7---5--5---5----5--5--5---5--5--5--5--5--5--5--5--5-5-5-5-5--|
d--5------5-5/6--6--------5---------5-4--------4-3--3--3--3--0--0--0--0--5-5-5-5-5--|
a------------------------------------------------------------------------3-3-3-3-3--|
e-----------------------------------------------------------------------------------|


Verse: Same as before, but that little bit
       before the Pre Chorus is:

e----------------|
b----------------|
g----------------|
d----------------|
a------0-3-3-0---|
e--0-3---------3-|

Pre Chorus

Chorus

Pre Solo: Guitar 1

e-------------------------------|
b-------------------------------|
g-5-5-5-5-5---8--10--3--3--5-5--|
d-5-5-5-5-5---8--10--3--3--5-5--| x4
a-3-3-3-3-3---6--8---1--1--3-3--|
e-------------------------------|

Guitar two comes in second time:

e---------------------------------------------|
b---------------------------------------------|
g-5-5-5---------------------------------------|
d-5-5-5---------------------------------------|
a-3-3-3-3-3-3-3-3-3-3-3-3-3-3-3-3-3-3-3-3-3-3-|
e---------------------------------------------|
        pm...................................

e-----------------------------------------------------|
b-1-1-4-1--1--1--1-4-1----1--1-1-4-1--1--1--1-4-6-7^--|
g----------------------3------------------------------|
d-----------------------------------------------------|
a-----------------------------------------------------|
e-----------------------------------------------------|

Solo:
Guitar 1

e-------------------------|
b-------------------6--5--|
g--3~---------------5--5--|
d--3~----------0----5--5--| x4
a--1~--0---------3--3--3--|
e--------3-1-0------------|

Guitar 2:

e------------------------13^^v-11-13^--11------------15^^--15-14-13----13-15------------|
b--11^^v-8---------------13^^v------------13~---13------------------16---------15v-13~--|
g----------10-8~------------------------------------------------------------------------|
d-----------------10\-------------------------------------------------------------------|
a---------------------------------------------------------------------------------------|
e---------------------------------------------------------------------------------------|

Only one guitar part in this bit

e-----------------------------0-------------------------|
b--5--3-3---6--5-5--5--5-4----0-------------------------|
g--5--3-3---5--5-5--5--4-4----1----------9-9-9-9-9-9-9--|
d--5--3-3---5--5-5--5--2-4----2----------9-9-9-9-9-9-9--|
a--3--3-3---3--3-3--3--2-2----2----------7-7-7-7-7-7-7--|
e-----------------------------0----------0-0-0-0-0-0-0--|

Pre Chorus

Chorus

Then play:

e-2-2-2-2-2-2-2-2--2-2-2-2-2-2-2-2--2-2-2-2-2-2-2-2--0-0-0-0-0-0-0-0---------------|
b-3-3-3-3-3-3-3-3--2-2-2-2-2-2-2-2--3-3-3-3-3-3-3-3--0-0-0-0-0-0-0-0---------------|
g-2-2-2-2-2-2-2-2--3-3-3-3-3-3-3-3--4-4-4-4-4-4-4-4--1-1-1-1-1-1-1-1---------------|
d-0-0-0-0-0-0-0-0--4-4-4-4-4-4-4-4--4-4-4-4-4-4-4-4--2-2-2-2-2-2-2-2---5-5----7-7--|
a------------------4-4-4-4-4-4-4-4--2-2-2-2-2-2-2-2--2-2-2-2-2-2-2-2---5-5----7-7--|
e------------------2-2-2-2-2-2-2-2-------------------0-0-0-0-0-0-0-0---3-3----5-5--|
"Pictures in the mirror, taken away from you,
Pictures in the mirror"

Outro (intro x4)

Finish on:

e-------|
b-------|
g-------|
d--10\--|
a--10\--|
e---8\--|

-----------------------------------------------------------------------------

FROM HERE ON IN

Intro: Lead
e--0-0-0-0-0-0---------|
b-/5-3-1-0-1-0---------|
g-------------------2--|
d-------------------2--|
a---------------3^--0--|
e----------------------|

Rythem:
e---------------|
b---------------|
g--5------------|
d--5---5--5--5--|
a--3---5--5--5--|
e------3--3--3--|

Verse:
   A      F      C      G
e---------------------------------------|
b---------------------------------------|
g--2-2-----------5-5--------------------|
d--2-2----3-3----5-5----5-5-5--5-5-5-5--| x2
a--0-0----3-3----3-3----5-5-5--5-5-5-5--|
e---------1-1-----------3-3-5--3-3-3-3--|
"Oh I can't, explain it
no I guess it's just the way it goes and,
For I know, no reason,
For I know, where I'm going"

Pre-Chorus:

e-----------------------------------------------------------0--------0--|
b-----------------------------------------------------------0--------0--|
g--------------------------------------2--2-4-5-2--2-4-5----1--------1--|
d-2--2-4-5-2--2--4-5-2--2-4-5-2--2-4-5-2--2-4-5-2--2-4-5--2-2--2-2-2-2--|
a-2--2-4-5-2--2--4-5-2--2-4-5-2--2-4-5-0--0-2-3-0--0-2-3--2-2--2-2-2-2--|
e-0--0-2-3-0--0--2-3-0--0-2-3-0--0-2-3--------------------0-0--0-0-0-0--|
"Don't come around here no more,
You're not welcome here anymore"

Chorus:

e------------1--1------------3-3-3-------------------------------------------|
b------------1--1------------3-3-3-------------------------------------------|
g--2-2--2----2--2--5-5--5----4-4-4-------7---------------------10-10-10-9-9--|
d--2-2--2--3-3--3--5-5--5--5-5-5-5--(2x)-7---------------------10-10-10-9-9--|
a--0-0--0--3-3--3--3-3--3--5-5-5-5-------5-5-5-5-5-5-5-5-5-5-5--8--8--8-7-7--|
e----------1-1--1----------3-3-3-3-------------------------------------------|
                                           pm.................
"From here on in, you're on your own
So carry on, just like before
And don't you think I won't"

Pre verse: Chords A, F, C, G in backround

e--0--0---0--0-0---0-0---0-0-0--0--0---0--0-0---0-0---0-0-0------|
b--3--3/5-3--1-1---1-1/3-1-0-1--3--3/5-3--1-1---1-1/3-1-0-1------|
g----------------------------------------------------------------|
d----------------------------------------------------------------|
a------------------------------------------------------------3^--|
e----------------------------------------------------------------|

Verse

Pre Chorus

Chorus

Solo: Chorus chords in backround

e--0--0---0--0-0---0-0---0-0-0-0------------------------------0---|
b--3--3/5-3--1-1---1-1/3-1-0-1-3---------------------------0--1---|
g------------------------------------------------------0h2--------|
d----------------------------------------0h2p0---0h2h3------------|
a----------------------------------0h2h3-------3------------------|
e-----------------------------------------------------------------|

e--3p2p0--------------------------------|
b--------3p2p0--------------------------|
g--------------3p2p0--3^v-2p0-----------|
d-----------------------------2p0-------|
a---------------------------------2p0---|
e---------------------------------------|

Bridge:

e-------------------------------------------|
b--2-2-2-2-6-6-6-6-7------7------7------7---|
g--2-2-2-2-6-6-6-6-7------7------7------7---|
d--2-2-2-2-6-6-6-6-7------7------7------7---| x3
a--0-0-0-0-4-4-4-4-5--5-5-5--5-5-5--5-5-5---|
e-------------------------------------------|
                      pm.    ...    ...

e--1-1--1-1-1--1--0-0--0-0-0------|
b--1-1--1-1-1--1--2-2--2-2-2------|
g--2-2--2-2-2--2--2-2--2-2-2------|
d--3-3--3-3-3--3--2-2--2-2-2------|
a--3-3--3-3-3--3--0-0--0-0-0------|
e--1-1--1-1-1--1--------------0---|


e--1-1-1-1--1-1-1-1--0-0-0-0--0-0-0-0--|
b--1-1-1-1--1-1-1-1--2-2-2-2--0-0-0-0--|
g--2-2-2-2--2-2-2-2--2-2-2-2--1-1-1-1--|
d--3-3-3-3--3-3-3-3--2-2-2-2--2-2-2-2--|
a--3-3-3-3--3-3-3-3--0-0-0-0--2-2-2-2--|
e--1-1-1-1--1-1-1-1-----------0-0-0-0--|

Chords in backround one again, are A, F, C, G
In between each chord, play this:

e-0-------0-------0------0------|
b-0h1p0---0h1p0---0h1p0--0h1p0--|
g-------------------------------|
d-------------------------------|
a-------------------------------|
e-------------------------------|

Verse

Pre Chorus

Chorus: At the end of the chorus, play

e--------------------------------------|
b--------------------------------------|
g-7---------------------10-10--10-9-9--|
d-7---------------------10-10--10-9-9--| x 3
a-5-5-5-5-5-5-5-5-5-5-5--8--8---8-7-7--|
e--------------------------------------|
  pm...................


Outro:

e--0--0---0--0-0---0-0---0-0-0--0--0---0--0-0---0-0---0-0-0----------|
b--3--3/5-3--1-1---1-1/3-1-0-1--3--3/5-3--1-1---1-1/3-1-0-1----------|
g---------------------------------------------------------------2-2--|
d---------------------------------------------------------------2-2--|
a------------------------------------------------------------3^-0-0--|
e--------------------------------------------------------------------|

-----------------------------------------------------------------------------

SAVE THE DAY

Intro:
e--------3p0---------3---------------------|
b------------1-------3---------------------|
g-2-2-2--------2--2--4--7-7-7-7^--7--8--5--|
d-2-2-2-----------2--5--7-7-7-7^--7--8--5--| x2
a-0-0-0-----------0--5--5-5-5-----5--6--3--|
e--------------------3---------------------|

Verse:

e----------------------------------------------------------|
b----------------------------------------------------------|
g-2------2------2------2------2------2---------------------|
d-2------2------2------2------2------2------2--2h3p2---2---|
a-0--0-0-0--0-0-0--0-0-0--0-0-0--0-0-0--0-0----------3-----|
e----------------------------------------------------------|
     pm.    ...    ...    ...    ...    ...
"So here I come to save the day"

e----------------------------------------------------------|
b----------------------------------------------------------|
g-2------2------2------2------2------2---------------------|
d-2------2------2------2------2------2---------------------|
a-0--0-0-0--0-0-0--0-0-0--0-0-0--0-0-0--0-0-3--2h3p2-------|
e----------------------------------------------------3p0---|
     pm.    ...    ...    ...    ...    ...
"A regular Joe now on Parade"

e-----------------------------------------------------|
b-----------------------------------------------------|
g-----------------------------------------------------|
d-3------3------3------3------3------3------3------5--|
a-3------3------3------3------3------3------3------5--|
e-1--1-1-1--1-1-1--1-1-1--1-1-1--1-1-1--1-1-1--3-3-3--|
     pm.    ...    ...    ...    ...    ...    ...
"They say, it's the only way, But they, they only want it when it's there"

e----------------------------------------------------------|
b----------------------------------------------------------|
g-2------2------2------2------2------2---------------------|
d-2------2------2------2------2------2------2--2h3p2---2---|
a-0--0-0-0--0-0-0--0-0-0--0-0-0--0-0-0--0-0----------3-----|
e----------------------------------------------------------|
     pm.    ...    ...    ...    ...    ...

Verse 2:

e----------------------------------------------------------|
b----------------------------------------------------------|
g-2------2------2------2------2------2---------------------|
d-2------2------2------2------2------2------2--2h3p2---2---|
a-0--0-0-0--0-0-0--0-0-0--0-0-0--0-0-0--0-0----------3-----|
e----------------------------------------------------------|
     pm.    ...    ...    ...    ...    ...
"So here I come to save the day"

e----------------------------------------------------------|
b----------------------------------------------------------|
g-2------2------2------2------2------2---------------------|
d-2------2------2------2------2------2---------------------|
a-0--0-0-0--0-0-0--0-0-0--0-0-0--0-0-0--0-0-3--2h3p2-------|
e----------------------------------------------------3p0---|
     pm.    ...    ...    ...    ...    ...
"The future's here, and the past is yesterday"

e-----------------------------------------------------|
b-----------------------------------------------------|
g-----------------------------------------------------|
d-3------3------3------3------3------3------3------5--|
a-3------3------3------3------3------3------3------5--|
e-1--1-1-1--1-1-1--1-1-1--1-1-1--1-1-1--1-1-1--3-3-3--|
     pm.    ...    ...    ...    ...    ...    ...
"They say, it's the only way, They say, they only want it when it's there"

e-----------------------------------------------------|
b-----------------------------------------------------|
g-2------2------2------2------2------2--2-2-----------|
d-2------2------2------2------2------2--2-2--5--5--5--|
a-0--0-0-0--0-0-0--0-0-0--0-0-0--0-0-0--0-0--5--5--5--|
e--------------------------------------------3--3--3--|
     pm.    ...    ...    ...    ...
"When it's there"

Chorus:

e----------------------------1--1--1--3--3--3--3--|
b----5--5--5--5--5--5--5-----1--1--1--3--3--3--3--|
g-5--5--5--5--5--5--5--5-----2--2--2--4--4--4--4--|
d-5--5--5--5--5--5--5--5--3--3--3--5--5--5--5--5--| x4
a-3--3--3--3--3--3--3--3--3--3--3--5--5--5--5--5--|
e-------------------------1--1--1--1--3--3--3--3--|
"We're not going on a holiday,
We do alot of work but we don't get paid,
Stand up don't walk away,
Take your pride and swallow, swallow,
Take your pride and swallow, swallow"


e--------3p0---------3---------------------|
b------------1-------3---------------------|
g-2-2-2--------2--2--4--7-7-7-7^--7--8--5--|
d-2-2-2-----------2--5--7-7-7-7^--7--8--5--|
a-0-0-0-----------0--5--5-5-5-----5--6--3--|
e--------------------3---------------------|


Verse 3

e----------------------------------------------------------|
b----------------------------------------------------------|
g-2------2------2------2------2------2---------------------|
d-2------2------2------2------2------2------2--2h3p2---2---|
a-0--0-0-0--0-0-0--0-0-0--0-0-0--0-0-0--0-0----------3-----|
e----------------------------------------------------------|
     pm.    ...    ...    ...    ...    ...
"Life's full of much unwanted waste"

e----------------------------------------------------------|
b----------------------------------------------------------|
g-2------2------2------2------2------2---------------------|
d-2------2------2------2------2------2---------------------|
a-0--0-0-0--0-0-0--0-0-0--0-0-0--0-0-0--0-0-3--2h3p2-------|
e----------------------------------------------------3p0---|
     pm.    ...    ...    ...    ...    ...
"Crime pays and the junkies walk away"


e-----------------------------------------------------|
b-----------------------------------------------------|
g-----------------------------------------------------|
d-3------3------3------3------3------3------3------5--|
a-3------3------3------3------3------3------3------5--|
e-1--1-1-1--1-1-1--1-1-1--1-1-1--1-1-1--1-1-1--3-3-3--|
     pm.    ...    ...    ...    ...    ...    ...
"But for, husband and the good son,
they speak, ill at ease but they dare not run"

e-----------------------------------------------------|
b-----------------------------------------------------|
g-2------2------2------2------2------2--2-2-----------|
d-2------2------2------2------2------2--2-2--5--5--5--|
a-0--0-0-0--0-0-0--0-0-0--0-0-0--0-0-0--0-0--5--5--5--|
e--------------------------------------------3--3--3--|
     pm.    ...    ...    ...    ...
"They dare not run!"


Chorus

Pre Solo

e----------------------------|
b-5--5--5--------------------|
g-5--5--5--------------------|
d-5--5--5--------------------| x4
a-3--3--3--3-3-3-3-3-3-3-3---|
e----------------------------|
           pm.............

Solo: Guitar in backround just plays C, F, G

e-----------------------------------------3h5p3-1-0-----1p0--------------0--|
b-5----------------------------------5--------------3-------3-1-0--0--0--0--|
g-5----0h2p0-------------------------5--------------------------2--0--2-----|
d-5-----------3-2-0--3p2p0---------5-5--------------------------------------|
a-3------------------------3---2-5------------------------------------------|
e----------------------------3----------------------------------------------|

e--------------------3---------------------------|
b--------------------3---------------------------|
g-2-2-2-----------2--4--7-7-7-----------7--8--5--|
d-2-2-2-----------2--5--7-7-7-----------7--8--5--| x2
a-0-0-0--0-0-0-0--0--5--5-5-5--5-5-5-5--5--6--3--|
e--------------------3---------------------------|
         pm.....               pm.....

e---------------------------------------------------------------------|
b---------------------------------------------------------------------|
g---------------------------------------------------------------------|
d---------------------------------------------------------------------|
a--(2)-(2)-(3)-(3)-(4)-(4)-(5)-(5)-(6)-(6)-(7)-(7)-(8)-(8)-(12)-(12)--|
e---------------------------------------------------------------------|
()=harmonics


Chorus

Outro:

e----------3--1--0------0---------------|
b-------1-----------3---1---------------|
g-2--2------------------2---------------|
d-2---------------------2------7-7-7-7--|
a-0---------------------0------7-7-7-7--|
e------------------------------5-5-5-5--|

-----------------------------------------------------------------------------

Whos Gonna Save Us

PM~= PALM MUTE
^= BEND UP A HALF TONE
^^= BEND UP A WHOLE TONE
v= BEND DOWN A HALF TONE
vv= BEND DOWN A WHOLE TONE
H= HAMMER ON
P= PULL OFF

INTRO

EI-----------------I     EI---------------I--------|II
BI-3-1-0-----------I     BI---------------I--------|II
GI-------0-2-0-4-0-I  OR GI-7-5-4---------I-7-7----|II
DI-----------------I     DI-------5-7-5-4-I-7-7----|II
AI-----------------I     AI---------------I-5-5----|II
EI-----------------I     EI---------------I--------|II
         X8                        X8

VERSE
VERSE RIFF A
   G5    D5    G5    D5    E5    C5    G5          E5      A5  E5     B5
C5
EI--------------------------------------------------------------------------------------------|I
BI--------------------------------------------------------------------------------------------|I
GI-----------7-----------7-----------5---------------------2-2---------4-4-5-5-5-5-5-5-5-5----|I
DI-----5-----7-----5-----7-----2-----5-----5-----5-----2---2-2-----2---4-4-5-5-5-5-5-5-5-5----|I
AI-----5-5-5-5-----5-5-5-5-----2-3-3-3-----5-----5-----2---0-0-----2---2-2-3-3-3-3-3-3-3-3----|I
EI-3-3-3-------3-3-3-------0-0-0-------3-3-3-3-3-3-0-0-0-0-----0-0-0-0------------------------|I
PM~~~   ~~~   ~~~   ~~~   ~~~   ~~~   ~~~   ~~~   ~~~   ~~~~~ ~~~
~~~~~~~~~~~~~~~~~~~~~~

VERSE RIFF B
   G5    D5    G5    D5    E5    C5    G5          E5      A5  E5     B5
C5              D5
EI------------------------------------------------------------------------------------------------|I
BI------------------------------------------------------------------------------------------------|I
GI-----------7-----------7-----------5---------------------2-2---------4-4-5-5-5-5-5-5-5-5-3-3----|I
DI-----5-----7-----5-----7-----2-----5-----5-----5-----2---2-2-----2---4-4-5-5-5-5-5-5-5-5-3-3----|I
AI-----5-5-5-5-----5-5-5-5-----2-3-3-3-----5-----5-----2---0-0-----2---2-2-3-3-3-3-3-3-3-3-5-5----|I
EI-3-3-3-------3-3-3-------0-0-0-------3-3-3-3-3-3-0-0-0-0-----0-0-0-0----------------------------|I
PM~~~   ~~~   ~~~   ~~~   ~~~   ~~~   ~~~   ~~~   ~~~   ~~~~~ ~~~   ~~~~~~
THERE ARE FAINT SONDS OF THE INTRO WHEN CHRIS IS PLAYING UN PALM MUTED C5
CHORD AT THE END OF THE
SECOND LINE, SO IF YOU HAVE TWO GUITARISTS IT WOULD BE GOOD.

CHORUS
   G5  D5  G5  D5  E5  C5  G5      E5  A5  E5  B5  C5          D5
EI--------------------------------------------------------------------|II
BI--------------------------------------------------------------------|II
GI-----7-7-----7-7-----5-5-------------2-2-----4-4-5-5-5-5-5-5-7-7----|II
DI-5-5-7-7-5-5-7-7-2-2-5-5-5-5-5-5-2-2-2-2-2-2-4-4-5-5-5-5-5-5-7-7----|II
AI-5-5-5-5-5-5-5-5-2-2-3-3-5-5-5-5-2-2-0-0-2-2-2-2-3-3-3-3-3-3-5-5----|II
EI-3-3-----3-3-----0-0-----3-3-3-3-0-0-----0-0------------------------|II

VERSE RIFF B (X1)

CHORUS(X1)

SOLO

EI-----------------------------------------------------11---------------11----|I
BI---8-9-8H9P8-----------------------------8-9-8H9P8-------8-9-8H9P8----------|I
GI-----10-8-8-8-8-----------8-8-10P8------8-----------8---------------8-------|I
DI---------------------------------------10-8-8H10----------10P8--------------|I
AI----------------------------------------------------------------------------|I
EI----------------------------------------------------------------------------|I

EI------11------11-------------|II
BI-11^^----11^^----11VV-9-8----|II
GI-----------------------------|II
DI-----------------------------|II
AI-----------------------------|II
EI-----------------------------|II
This isn't the exact solo but it sounds pretty much the same!:)

POST SOLO (INTRO X 14)

VERSE RIFF B (X1) PLAY THE C5 CHORD NEAR THE END TWICE AS LONG.

CHORUS (X2)

OUTRO
   C5                              D5  G5
EI------------------------------------------|II
BI------------------------------------------|II
GI-5-5-5-5-5-5-5-5-5-5-5-5-5-5-5-5-7-7------|II
DI-5-5-5-5-5-5-5-5-5-5-5-5-5-5-5-5-7-7-5----|II
AI-3-3-3-3-3-3-3-3-3-3-3-3-3-3-3-3-5-5-5----|II
EI-------------------------------------3----|II

THE OUTRO HAS TWO GUITARS AS WELL. ONE PLAYS THE ABOVE AND THE OTHER PLAYS
THE INTRO.

-----------------------------------------------------------------------------

ONE SAID TO THE OTHER

Intro:

e-----------------------------------|
b-3-3-3-3-3-3-3-3-3-3-3-3-3-3-------|
g-2-2-2-2-2-2-2-2-2-2-2-2-2-2--7\---|
d-0-0-0-0-0-0-0-0-0-0-0-0-0-0--7\---|
a------------------------------5\---|
e-----------------------------------|
"YEAH!"

Chorus:

e-----5-5---------2-2-2-2--2-2-2-2--------------|
b-----5-5----6-6--2-2-2-2--3-3-3-3--------------|
g-----6-6--6-6-6--2-2-2-2--2-2-2-2--------------|
d-7-7-7-7--6-6-6--4-4-4-4--0-0-0-0-4--4--2-2-2--|
a-7-7-7-7--4-4-4--4-4-4-4----------4--4--2-2-2--|
e-5-5-5-5---------2-2-2-2----------2--2--0-0-0--|
"One said to the other,
you'll never find another,
now that you're on you own."

e------5-5---------2-2-2-2--2-2-2-2-----------------|
b------5-5----6-6--2-2-2-2--3-3-3-3-----------------|
g------6-6--6-6-6--2-2-2-2--2-2-2-2-------6-6-6\----|
d-7--7-7-7--6-6-6--4-4-4-4--0-0-0-0-4--4--6-6-6\----|
a-7--7-7-7--4-4-4--4-4-4-4----------4--4--4-4-4\----|
e-5--5-5-5---------2-2-2-2----------2--2------------|
"To discover,
You're living undercover,
Now that you're on your"

e-----------------------------------|
b-----------------------------------|
g--------------------------------9--|
d-2-2---2-2----------------------9--|
a-2-2---2-2--2/5-4h5p4-\2p0------7--|
e-0-0---0-0-----------------4p0--0--|
"Own! Own!"

Verse: x2

e-----5------4------2-------------5------4--2--0---------|
b-----5------5------2-------------5------5--2--0---------|
g-----6------6------2------7------6------6--2--0----6^v--|
d-----7------6------4------7------7------6--4--2--7------|
a-----7--4-4-4------4--5-5-5------7--4-4-4--4--2--7------|
e-5-5-5---------2-2-2---------5-5-5---------2--0--5------|
  pm.    ...    ...    ...    ...    ...
"She's not really bothered by the rio in Malan,
Only gets excited by the cheap shot brands
Dressed in her number that she got from Japan,
Powdered up confident with salarium tan."

Pre-Chorus
e---------------------------|
b--7-----7-----7-----7------|
g---------------------------|
d-----4-----4-----4-----4---| repeat as needed
a---------------------------|
e---------------------------|
"You know that she wont leave hear alone,
She aint ever gonna leave hear alone."

e----------------------------------|
b-3--3--3---3-3-3-3--3--3--3-3-----|
g-2--2--2---2-2-2-2--2--2--2-2-----|
d-0--0--0---0-0-0-0--0--0--0-0-----|
a----------------------------------|
e----------------------------------|

Chorus, then:

e---------------------------------------------|
b---------------------------------------------|
g--------------------------------9------------|
d-2-2---2-2----------------------9--7---------|
a-2-2---2-2--2/5-4h5p4-\2p0------7--7----12\--|
e-0-0---0-0-----------------4p0--0--5----12\--|
"Own! Own!"

Verse

Pre Chorus

Chorus

Solo:

e------------------------------|
b------------------------------|
g------------------------------|
d-2-2-2--3-3-3--4-4-4-5-6------|
a-2-2-2--3-3-3--4-4-4-5-6------|
e-0-0-0--1-1-1--2-2-2-3-4------|
  pm.    ...    ...


e---------------------------------5--------|
b-2-------4^-4^-4^-----2-----/7---7-7p5----|
g-4^^v-2-----------4^^---4-2---------------|
d------------------------------------------|
a------------------------------------------|
e------------------------------------------|

e--0-0-0-0-0-0--7^^-7p5----------------x-x-x-x-x-x--|
b--2-3-5-5/7-5---------7p5-------------x-x-x-x-x-x--|
g--------------------------\5p4--------x-x-x-x-x-x--|
d-------------------------------7p4-7--x-x-x-x-x-x--|
a--------------------------------------x-x-x-x-x-x--|
e--------------------------------------x-x-x-x-x-x--|


e---------------------------------------------------|
b------2------2-----2-----2---5p2-0-----------------|
g--2h4----2/4---2h4---2h4-----------2-----2h4p2-----|
d-------------------------------------4p2-----------|
a---------------------------------------------------|
e---------------------------------------------------|

e---------------------------------------------------|
b---------------------------------------------------|
g-----------------------------------6-----9h6-------|
d-------------------------7-9--9^^----9^^-----9-7---|
a--7h9p7--------------7h9---------------------------|
e---------9\7-5--7/9--------------------------------|

Post Solo:

Guitar in backround
e---------------------------------------------------|
b--7-----7-----7-----7------------------------------|
g---------------------------------------------------|
d-----4-----4-----4-----4---repeat as needed--------|
a---------------------------------------------------|
e---------------------------------------------------|

Main Guitar
e--2-2-2-2-----------------------------------0-0-0-0-0-0-0-0--0-0-0-0-0--|
b--2-2-2-2----------------------------------/5-5-3-3-2-2-0-0--0-0-0-0-0--|
g--3-3-3-3--6-6-6-6--7-7-7-7--9-9-9-9-------------------------1-1-1-1-1--|
d--4-4-4-4--6-6-6-6--7-7-7-7--9-9-9-9--(x4)-------------------2-2-2-2-2--|
a--4-4-4-4--4-4-4-4--5-5-5-5--7-7-7-7-------------------------2-2-2-2-2--|
e--2-2-2-2----------------------------------------------------0-0-0-0-0--|
"You know that she wont leave here alone..."


Chorus


Outro:

e----------------------------------------|
b----------------------------------------|
g----------------------------------------|
d-2-2---2-2---2-2-2--3-3-3--4-4-4-5-6----|
a-2-2---2-2---2-2-2--3-3-3--4-4-4-5-6----|
e-0-0---0-0---0-0-0--1-1-1--2-2-2-3-4----|
               pm.    ...    ...
   Own!  Own!

e----------------------------------------|
b----------------------------------------|
g--------------------------------9-------|
d-2-2---2-2----------------------9-------|
a-2-2---2-2--2/5-4h5p4-\2p0------7---12\-|
e-0-0---0-0-----------------4p0--0---12\-|
   Own!  Own!

-----------------------------------------------------------------------------

     DIRTY MAN

Intro:
e----------5-5---------5-5---------|
b------5-5---------5-5---------5-5-|
g--2-2---------2-2---------2-2-----| Repeat as needed.
d----------------------------------| Guitar in backround
a----------------------------------| plays A chord.
e----------------------------------|

Verse: x2

e----------------------------|
b------2---0-----------2---0-|
g--2-2-2-2-2-2-2-2-2-2-2-2-2-| Repeat as needed
d--2-2-2-2-2-2-2-2-2-2-2-2-2-|
a--0-0-0-0-0-0-0-0-0-0-0-0-0-|
e----------------------------|
   pm.       .........

e---------------------------|
b---------------------------|
g--6-6---6-6---6-6---6--6-6-|
d--6-6---6-6---6-6---6--6-6-|
a--4-4---4-4---4-4---4--4-4-|
e---------------------------|

Pre Chorus:

e-----------------------2--2-------------------------9--9---|
b-----------------------2--2------------------------10-10---|
g--7--7-7-9--9----------3--3--7--7-7-9--9--11-9--11-11-11---|
d--7--7-7-9--9--7--7-4--4--4--7--7-7-9--9--11-9--11-11-11---|
a--5--5-5-7--7--7--7-4--4--4--5--5-5-7--7--9--7---9--9--9---|
e---------------5--5\2--2--2--------------------------------|

e------------------------------------------3--3--3--3-|
b------------------------------------------3--3--3--3-|
g------4-4-------------4-4-----------------4--4--4--4-|
d------4-4-2-2---------4-4-2-2-2-2--5--5-5-5--5--5--5-|
a--2-2-2-2-2-2-2---2-2-2-2-2-2-2-2--5--5-5-5--5--5--5-|
e----------0-0-0-----------0-0-0-0--3--3-3-3--3--3--3-|
   pm.     ...     ...     ...

Chorus:

e----------------------------------1--------3--3-3--3-3-3--|
b--5--5----------------------------1--------3--3-3--3-3-3--|
g--5--5---5--5-5--2--2-------------2--------4--4-4--4-4-4--| x2
d--5--5---5--5-5--2--2--2--2--3--3-3--3-3-3-5--5-5--5-5-5--|
a--3--3p0-2--2-2--0--0--2--2--3--3-3--3-3-3-5--5-5--5-5-5--|
e-----------------------0--0--1--1-1--1-1-1-3--3-3--3-3-3--|

e-----------4-----------------------------------------------------------------------------------------------|
b-----------4--1--------------------------------------------------------------------------------------------|
g-----2-----5--2-------------------------------------10-10-10-10-10-10-10-10-10-10-10-10-10-10-10-10--------|
d-----2-----5--2----3-3-3-3-3-3-3-3-3-3-3-3-3-3-3-3--10-10-10-10-10-10-10-10-10-10-10-10-10-10-10-10--0-1-2-|
a-0-0-0-----5--0----3-3-3-3-3-3-3-3-3-3-3-3-3-3-3-3--8--8--8--8--8--8--8--8--8--8--8--8--8--8--8--8---------|
e-------3-3-3-------1-1-1-1-1-1-1-1-1-1-1-1-1-1-1-1---------------------------------------------------------|
  pm.   ...

Intro

Verse

Pre Chorus

Chorus

Solo:

e------------------------------------------------------------------------------|
b------------------------------------------------------------------------------|
g------------------------------------------------------------------------------|
d--8-10~-8-10~-8-10~-8-10~--repeat as needed--8-10~-8-10~-8-10-8-10^-10^10^10^-|
a--8-10~-8-10~-8-10~-8-10~--------------------8-10~-8-10~-8-10-8-10^-10^10^10^-|
e------------------------------------------------------------------------------|


Play this bit twice
e----------------------------------------------------------------------------|
b----------------------------------------------------------------------------|
g----------------------------------------------------------------------------|
d--10-10-12-10-13-10-12-10--13-13-15-13-16-15-13\---8-10~-8-10~-8-10~-8-10~--|
a--8--8--8--8--8--8--8--8---11-11-11-11-11-11-11\---8-10~-8-10~-8-10~-8-10~--|
e----------------------------------------------------------------------------|


Bridge:

e-------------------------------------2------------------------------------------3--3---3-3-----------------|
b-------------------------------------2------------------------------------------3--3---3-3--4----4-4-4-4-4-|
g--7-7--9--11~--9-9--11-13/14---------3-------4-4------------4-4-----------------3--3---3-3--4----4-4-4-4-4-|
d--x-x--x---x---x-x--x---x--x---7--6--4-------4-4-2-2-2------4-4-2-2-2-2--5--5-5-5--5---5-5--5----5-5-5-5-5-|
a--5-5--7---9~--7-7--9--11/12---7--6--4---2-2-2-2-2-2-2--2-2-2-2-2-2-2-2--5--5-5-5--5---5-5--5----5-5-5-5-5-|
e-------------------------------5--4--2-----------0-0-0----------0-0-0-0--3--3-3-3--3---3-3-----------------|
                                          pm.     ...    ...     ...
Chorus


Outro:

e----3--3-3-3-0------3--3-3-3-0------3--3-3-3-0-------3--------------0----------------------|
b--------------------------------------------------------------------0----------------------|
g--5---------------5---------------5---------------5-----5--4--------0----------------------|
d--5---------------5---------------5---------------5-----5--4--5--4--2---/5--4--2p0-2~------|
a--3-------------0-3-------------0-3-------------0-3-----3--2--5--4--2----------------------|
e--------------------------------------------------------------3--2--0--------------------0-|

-----------------------------------------------------------------------------

TABLOID MAGAZINE

Intro:

e--7---7---7-----7---7---7------|
b--7---7---7-----7---7---7------|
g--9^^-9^^-9^^---9^^-9^^-9^^----|
d-------------------------------|
a-------------------------------|
e-------------------------------|

Lead Guitar
e--7---7---7---7---7---7----------------------------------------------|
b--7---7---7---7---7---7----/10-7-------7b----------------------------|
g--9^^-9^^-9^^-9^^-9^^-9^^--------9p7---7b----------------7-9^^v-7-9--|
d-------------------------------------9----9---7--9---7h9-------------|
a--------------------------------------------9------------------------|
e---------------------------------------------------------------------|

e--7---7---7---7---7---7------------------|
b--7---7---7---7---7---7----/10-7---------|
g--9^^-9^^-9^^-9^^-9^^-9^^--------9p7-----|
d-------------------------------------9---|
a-----------------------------------------|
e-----------------------------------------|

e-------------------------------------------------------|
b-/7-0---0-7-0-7-0---0-7-0-7-0---0-7-0---0-7-0-7-0-7-0--|
g-------------------------------------------------------|
d------7-----------7-----------7-------7----------------|
a-------------------------------------------------------|
e-------------------------------------------------------|

Rythem Guitar
   Bm    F#m      G        A              E              G
e--2--2--2-2-2----3-3-3-------------------0-0-0-0--------3-3-3-3-------|
b--3--3--2-2-2----3-3-3----2-3-2-0--------0-0-0-0--------3-3-3-3-------|
g--4--4--2-2-2----4-4-4----2-2-2-2--------1-1-1-1--------4-4-4-4-------|
d--4--4--4-4-4-0--5-5-5-0--2-2-2-2--(x3)--2-2-2-2--------5-5-5-5-------|
a--2--2--4-4-4-0--5-5-5-0--0-0-0-0--------2-2-2-2--------5-5-5-5-------|
e--------2-2-2-0--3-3-3-0-----------------0-0-0-0--(x4)--3-3-3-3--(x2)-|


Pre verse:

e----------------------------------|
b----------------------------------|
g--3/4--4------4----7-7--2-2-------|
d--3/4--4------4----7-7--2-2--2-2--|
a--1/2--2--2-2-2----5-5--0-0--2-2--|
e-----------------------------0-0--|
           pm.

Verse:

e-------------------------------------2-------2-------2-----2-2----|
b------2-------2-------2-----2-2------2-------2-------2-----2-2----|
g------2-------2-------2-----2-2------2-------2-------2-----2-2----|
d--2-2-2-2-2-2-2-2-2-2-2-2-2-2-2------4-------4-------4-----4-4----|
a--0-0-0-0-0-0-0-0-0-0-0-0-0-0-0--4-4-4-4-4-4-4-4-4-4-4-4-4-4-4----|
e---------------------------------2-2-2-2-2-2-2-2-2-2-2-2-2-2-2----|
   pm.   .....   .....   ...      ...   .....   .....   ...
"Temperamental editors
Searching for the passion
Overpaid and over-rated
Looking for a cash in"

e-----------------------------------|
b-----------------------------------|
g------7-------7-7------1-----1-1---|
d--7-7-7-7-7-7-7-7------2-----2-2---|
a--5-5-5-5-5-5-5-5--2-2-2-2-2-2-2---| Repeat all that twice
e-------------------0-0-0-0-0-0-0---|
   pm.   .....      ...   ...
"Yeah, it's too late"


Pre Chorus:

e----------------------------------------4-4--(4-4-4)---------|
b----------------------------------------5-5--(5-5-5)---------|
g--7-7--(7-7-7)--7-7--9-9-----------9-9--6-6--(6-6-6)--6-6----|
d--7-7--(7-7-7)--7-7--9-9--(9-9-9)--9-9--6-6--(6-6-6)--6-6----|
a--5-5--(5-5-5)--5-5--7-7--(7-7-7)--7-9--4-4--(4-4-4)--4-4----|
e-------------------------------------------------------------|
"And you read about it
You just can't sleep without
The pages of the magazine"

e--2-2----------------------------------------------|
b--2-2--(2-2-2)-------------------------------------|
g--3-3--(3-3-3)-------4-4--(4-4)--4--------2-2-2----|
d--4-4--(4-4-4)--4-4--4-4--(4-4)--4--4--5--2-2-2----|
a--4-4--(4-4-4)--4-4--2-2--(2-2)--2--4--5--0-0-0----|
e--2-2-----------2-2-----------------2--3-----------|
"Don't believe in all you read"


Chorus:

   Bm    F#m      G        A              E              G
e--2--2--2-2-2----3-3-3-------------------0-0-0-0--------3-3-3-3-------|
b--3--3--2-2-2----3-3-3----2-3-2-0--------0-0-0-0--------3-3-3-3-------|
g--4--4--2-2-2----4-4-4----2-2-2-2--------1-1-1-1--------4-4-4-4-------|
d--4--4--4-4-4-0--5-5-5-0--2-2-2-2--(x3)--2-2-2-2--------5-5-5-5-------|
a--2--2--4-4-4-0--5-5-5-0--0-0-0-0--------2-2-2-2--------5-5-5-5-------|
e--------2-2-2-0--3-3-3-0-----------------0-0-0-0--(x4)--3-3-3-3--(x2)-|
"You can't trust the tabloid magazine
And I'm about to break down
It's just a tabloid magazine
And I don't wanna break down"

Pre Verse

Verse 2: Same as verse 1, but with Lead bit in backround

e--5-5-----5-------------------5-5-----5-------------|
b----------------------------------2-2------2--------|
g------2-2------2----6^v-----------------------------|
d-------------------------(x2)-----------------------| x2
a----------------------------------------------------|
e-----------------------------------------------0-0--|


Pre Chorus

Chorus

Bridge:

e-------------------------------------------------|
b-------------------------------------------------|
g-6--6-7--7-9--9-7--7-6--6-7-7--------2-2---------|
d-7--7-7--7-9--9-7--7-7--7-7-7--4--2--2-2--2------| x3
a-7--7-5--5-7--7-5--5-7--7-5-5--4--2--0-0--2---0--|
e-5--5----------------5--5------2--0-------0-2----|
"Don't wanna be around 'em
Better off without them
You know you can't escape them"

e----------------------------------------------------|
b----------------------------------------------------|
g--7-------------------------------------------------|
d--7--7-7-7-7-7-7--9-9-9-9-9-9-9-9--6-6-6-6-6-6-6-6--|
a--5--5-5-5-5-5-5--7-7-7-7-7-7-7-7--4-4-4-4-4-4-4-4--|
e----------------------------------------------------|
      pm...........................................
"And you read about them all the time
From the pages of the magazine"

e-----------------------2-2-2--2--3---------------|
b-----------------------3-3-3--2--3----2-2-x-x----|
g-----------------------4-4-4--2--4----2-2-x-x----|
d-------------------4-4-4-4-4--4--5----2-2-x-x----|
a--4-4-4-4-4-4-4-4--2-2-2-2-2--4--5----0-0-x-x----|
e--2-2-2-2-2-2-2-2-------------2--3---------------|
   pm..................
"But you can't believe in all you read."


Intro

then
e---------------------|
b---------------------|
g--2-2-2-2-2-2-2-2----|
d--2-2-2-2-2-2-2-2----|
a--0-0-0-0-1-1-1-1----|
e---------------------|


Chorus

Outro:

e-------------7\----|
b-------------7\----|
g--6-7-6-7----7\----|
d--x-x-x-x----9\----|
a--4-5-4-5----9\----|
e-------------7\----|


Thats It Folks  Enjoy Rate And Comment


The Living End Rock
comments
print report bad tab
1 comment total.
0 reply
mucho-mum wrote on May 31 2007, 07:27 am

Grrrrrr8 tab!
5 stars FOR SURE!

I want to post or [tab]
guest
You may want to rate the tab now too:
select rating
Please do not post tabs as comments. Select "correction" instead!