Oops, an error
Loading. Please wait.

Its For Your Own Good Tab

744 views 1 this week
1 commentread comment
1 2 3 4 5
excellent!
x 3
Autoscroll
+/-
esc
set tempo
stop
Contributor
Hey! There's an official Ultimate Guitar app which is ideal
for learning songs when you're away from computer. Get the app
WARNING: You are trying to view
                                    content from Ultimate-Guitar.com
                                    in an unauthorized application,
                                    which is prohibited.

                                    Please use an official Ultimate
                                    Guitar Tabs application for iPhone,
                                    iPad or Android to access legitimate
                                    chords, guitar, bass, and drum tabs
                                    from Ultimate-Guitar.com database.

                                    Type "ultimate guitar tabs" in Apple
                                    App Store's or Android Market's
                                    search to find the application.
                        -THE LIVING END-
                    Its For Your Own Good EP
 
                  Transcribbed By Michael Fryar
                      manumick20@yahoo.com


Song in Order: 1)From Here On In
               2)English Army
               3)One More Cell
               4)Stay Away From Me*
               5)Problem
               6)10:15 Saturday Night

All (originally written Songs by Chris Cheney 
                            except * by Scott Owen)

===================================================

                   From Here On In-

Intro:

e-0s0-0-0-0-0-0-----|
b-3s5-3-1-3-1-3-----|
g-----------------0-|
d---------------x-0-|
a---------------x-2-|
e---------------x---|


Verse:

   A     F     C     G
e---------------------------------|
b---------------------------------|
g--2-2---------5-5----------------|
d--2-2---3-3---5-5---5-5-5-5-5-5--|
a--0-0---3-3---3-3---5-5-5-5-5-5--|
e--------1-1---------3-3-3-3-3-3--|

  E   F#  G      A   B   C      E
e---------------------------------------|
b---------------------------------------|
g----------------2-2-4-4-5--------------|
d-2-2-4-4-5------2-2-4-4-5------2-2-2-2-|
a-2-2-4-4-5-(x4)-0-0-2-2-3-(x2)-2-2-2-2-|
e-0-0-2-2-3---------------------0-0-0-0-|



Chorus:


   A      F    C     G (open G chord)
e----------1-----------2--|
b----2-----1-----5-----2--|
g--2-2-----2---5-5-----0--|
d--2-2---3-3---5-5-----0--|(x2)
a--0-0---3-3---3-3---2-2--|
e--------1-1---------3-3--|

  D                           F    E
e-------------------------------------|
b-------------------------------------|
g-7-7-7-7-7-7-7-7-7-7-7-7-7-7---------|
d-7-7-7-7-7-7-7-7-7-7-7-7-7-7-3-3--2--|
a-5-5-5-5-5-5-5-5-5-5-5-5-5-5-3-3--2--|
e-----------------------------1-1--0--|
/ p a l m     m u t e d.....\



Guitar Fill/Break:

e--------------------------|
b---8----------------------|
g-5-7~7-5-5--5-7-5-4-4h5p4-|
d--------------------------|(x2)
a--------------------------|
e--------------------------|


Verse

Chorus


Solo:

e----------------------------|
b---8------------------------|
g-5-7~-7~-5-5--5-7-5-4-4h5p4-|
d----------------------------|
a----------------------------|
e----------------------------|

e----------------------------|
b------------------0-2-4-2-0-|
g------------0-2-4-----------|
d------0-2-4-----------------|
a0-2-4-----------------------|
e----------------------------|

e-------------------------------------|
b-------------------------------------|
g-4-2-0-------------------------------|
d-------4-2-0-------------------------|
a-------------4-2-0-------4-2-0-------|
e-------------------4-2-0-------4-2-0-|


Bridge#1:

e-----------------------------|
b-----------------------------|
g-2-2-2--5-5-5--7-7-7-7-7-7-7-|
d-2-2-2--5-5-5--7-7-7-7-7-7-7-|(x3)
a-0-0-0--3-3-3--5-5-5-5-5-5-5-|
e-----------------------------|

  F                A
e-----------------------------------|
b-----------------------------------|
g------------------2-2-2-2-2-2-2-2--|
d-3-3-3-3-3-3-3-3--2-2-2-2-2-2-2-2--|
a-3-3-3-3-3-3-3-3--0-0-0-0-0-0-0-0--|
e-1-1-1-1-1-1-1-1-------------------|

  F                A        F
e-----------------------------1--|
b-----------------------------1--|
g------------------2-2-2-2----2--|
d-3-3-3-3-3-3-3-3--2-2-2-2--3-3--|
a-3-3-3-3-3-3-3-3--0-0-0-0--3-3--|
e-1-1-1-1-1-1-1-1-----------1-1--|

Bridge#2

  A               F
e------------------------------1--|
b------------2----------------1---|
g-2-2---2---2----------------2----|
d-2-2---2--2------3-3---3---3-----|
a-0-0-0-0-0-------3-3---3--3------|
e-----------------1-1-1-1-1-------|

  C               G
e------------------------------3--|
b------------5----------------3---|
g-5-5---5---5----------------4----|
d-5-5---5--5------5-5---5---5-----|
a-3-3-3-3-3-------5-5---5--5------|
e-----------------3-3-3-3-3-------|

Repeat Bridge#2 again

Verse


Last Chorus:

   A      F    C     G (open G chord)
e----------1-----------2--|
b----2-----1-----5-----2--|
g--2-2-----2---5-5-----0--|
d--2-2---3-3---5-5-----0--|(x2)
a--0-0---3-3---3-3---2-2--|
e--------1-1---------3-3--|

  D                           F    E
e-------------------------------------|
b-------------------------------------|
g-7-7-7-7-7-7-7-7-7-7-7-7-7-7---------|
d-7-7-7-7-7-7-7-7-7-7-7-7-7-7-3-3--2--|(x3)
a-5-5-5-5-5-5-5-5-5-5-5-5-5-5-3-3--2--|
e-----------------------------1-1--0--|
/ p a l m     m u t e d.....\

Guitar Fill/Break (x2)


End on A chord:

e-----|
b-----|
g-2-2-|
d-2-2-|
a-0-0-|
e-----|




--------------------------

                 - The Living End -
                    English Army
               Tabbed By Michael Fryar
                manumick20@yahoo.com
                         +
                   Matty Hosking
              mmhosking@ozemail.com.au


*=play/strum as needed
h=hammer on
p=pull off
^=bend



Intro:(a)

  F#  D   A   E    F#  D   A   
e------------------------------|
b------------------------------|
g-----7-7-----9-9------7-7-----|
d-4-4-7-7-7-7-9-9--4-4-7-7-7-7-|
a-4-4-5-5-7-7-7-7--4-4-5-5-7-7-|
e-2-2-----5-5------2-2-----5-5-|

  C#    D       E       D E F#    
e------------------------------|
b------------------------------|
g-6-6-6-7-7-7-7-9-9-9-9-7-9-11-|
d-6-6-6-7-7-7-7-9-9-9-9-7-9-11-|
a-4-4-4-5-5-5-5-7-7-7-7-5-7-9--|
e------------------------------|

  D       E
e--------------|
b--------------|
g-7-7-7-7-9-9-9|
d-7-7-7-7-9-9-9|
a-5-5-5-5-7-7-7|
e--------------|


Intro(b):

     A        
e--------------|
b--------------|
g--------------|
d-----2-0------|(x4)
a-0-2-----4-2--|
e--------------|
       

Verse:  

  A   G  F#  F   A   B   E   C#
e---------------------------------|
b---------------------------------|
g------------------------9*--6----|
d-7*--5--4*--3*--7*--9*--9*--6*---|
a-7*--5--4*--3*--7*--9*--7*--4*---|
e-5*--3--2*--1*--5*--7*-----------|
 / p a l m     m u t e d.......\


Chorus:

 F#  D   A   E    F#  D   A   
e------------------------------|
b------------------------------|
g-----7-7-----9-9------7-7-----|
d-4-4-7-7-7-7-9-9--4-4-7-7-7-7-|
a-4-4-5-5-7-7-7-7--4-4-5-5-7-7-|
e-2-2-----5-5------2-2-----5-5-|

  C#    D       E       D E F#    
e------------------------------|
b------------------------------|
g-6-6-6-7-7-7-7-9-9-9-9-7-9-11-|
d-6-6-6-7-7-7-7-9-9-9-9-7-9-11-|
a-4-4-4-5-5-5-5-7-7-7-7-5-7-9--|
e------------------------------|

  D       E
e--------------|
b--------------|
g-7-7-7-7-9-9-9|
d-7-7-7-7-9-9-9|
a-5-5-5-5-7-7-7|
e--------------|


Verse

Chorus

Intro(b) (x3) 


Pre Solo:

  E                            D D# B
e-------------------------------------|
b-------------------------------------|
g-9-9-9-9--9-9-9-9--9-9-9-9-9-9-7-6-4-|
d-9-9-9-9--9-9-9-9--9-9-9-9-9-9-7-6-4-|
a-7-7-7-7--7-7-7-7--7-7-7-7-7-7-5-4-2-|
e-------------------------------------| 


Solo *over verse*

e------------------------5----5----5----5-------------|
b-----------------------------------------------------|
g---------------------5^---5^---5^---5^---4^6^4p2-4-2-|
d-----2-4p2---2-----2---------------------------------|
a-0-4-------4---0-4-----------------------------------|
e-----------------------------------------------------|

e---4-5-4--------------------------------------------|
b-7-------7-5-5p4---------------------------4-5-4-5^7|
g-----------------6-4-6-4-------6p4-----4------------|
d-------------------------6-4-4-----4-6---6----------|
a----------------------------------------------------|
e----------------------------------------------------|

e-----------------------------------------|
b-----1-----8p7-5-3-5-7^------5-----5-----|
g---2---2-------------------6---6-----7-5-|
d-3-------3---------------7-------7-------|
a-----------------------------------------|
e-----------------------------------------|

e--------14-------|
b-14-16^----16-14-|
g-----------------|
d-----------------|
a-----------------|
e-----------------|

e------------------------------------|
b----10----10----10------------------|
g-9^----9^----9^----9^11^9p7---7~~~--|
d----------------------------9-------|
a------------------------------------|
e------------------------------------|

e----12-11-9-7-5-4---------|
b-12---------------7p5-----|
g----------------------6-4-|
d--------------------------|
a--------------------------|
e--------------------------|


Intro

Verse

Chorus(x2)


Outro:

  D  E  A
e-------------|
b-------------|
g-7--9--------|
d-7--9--7--7--|
a-5--7--7--7--|
e-------5--5--|


---------------------------

                 - THE LIVING END - 
                    One More Cell
                Tabbed by Mick Fryar
                manumick20@yahoo.com


(D)=Dont pluck note
h= hammer on
p= pull off
^=bend
s=slide
~=vibrado

Tune to Eb.

Eb--|
Bb--|
Gb--|
Db--|
Ab--|
Eb--|

================================================
                                  
Intro:

Eb-----3----------3----------0------0-1-3-8-7-|
Bb---5---5------5---5------1---1----1-3-5-9-8-|
Gb-5-------5--4-------4--2-------2------------|
Db--------------------------------------------|
Ab--------------------------------------------|
Eb--------------------------------------------|
                                             
Eb-----3----------3----------0-----0-1-3-8-10-|
Bb---5---5------5---5------1---1---1-3-5-9-12-|
Gb-5-------5--4-------4--2-------2------------|
Db--------------------------------------------|
Ab--------------------------------------------|
Eb--------------------------------------------|

    Cmaj7       C
Eb--------------------------|
Bb------5-------------------|
Gb--------4-----5-5-5-5-----|
Db----5-----5---5-5-5-5-----|
Ab--3-----------3-3-3-3-----|
Eb----------------------3^--|



Verse: (up strokes)

    Fm          G#
Eb--1-1-1-1-1-1-4-4--|
Bb--1-1-1-1-1-1-4-4--|
Gb--1-1-1-1-1-1-5-5--|
Db--3-3-3-3-3-3-6-6--|(x4)
Ab-------------------|
Eb-------------------|



PreChorus:

    F#               G#
Eb------------------------------------|
Bb------------------------------------|
Gb------------------------------------|
Db------4-------4--------6-------6----|(x3)
Ab----4---4---4---4----6---6---6---6--|
Eb--2-------2--------4-------4--------|

    C# G# F#
Eb-----------------------------------------|
Bb-----------------------------------------|
Gb--6--------------------------------------|
Db--6--6--4-----------------------4-4-4-4--|
Ab--4--6--4-----------------------4-4-4-4--|
Eb-----4--2-2-2-2-2-2-2-2-2-2-2-2-2-2-2-2--|
           / p a l m   m u t e d.........\



Chorus: (2 guitar parts here)

Gtr 1:
    C#       G#       A
Eb-------------------------------------|
Bb-------------------------------------|
Gb--6-6-6-6----------------------------|
Db--6-6-6-6--6-6-6-6--7-7-7-7-7-7-7-7--|
Ab--4-4-4-4--6-6-6-6--7-7-7-7-7-7-7-7--|
Eb-----------4-4-4-4--5-5-5-5-5-5-5-5--|

Gtr2:
Eb----------------------------------------|
Bb----------------------------5-7^-5------|
Gb-----------------------------------6s4--|
Db----------------------------------------|
Ab----------------------------------------|
Eb----------------------------------------|


Gtr 1:
    E                C#       G#
Eb-------------------------------------|
Bb-------------------------------------|
Gb--9-9-9-9-9-9-9-9--6-6-6-6-----------|
Db--9-9-9-9-9-9-9-9--6-6-6-6--6-6-6-6--|
Ab--7-7-7-7-7-7-7-7--4-4-4-4--6-6-6-6--|
Eb----------------------------4-4-4-4--|


Gtr 2: 
Eb-------------------------------------|
Bb-------------------------------------|
Gb-------------------------------------|
Db-------------------------------------|
Ab-------------------------------------|
Eb----------------------------4-3-2-0--|

Repeat from start of chorus,

    C#m        A
Eb--------4----------5--|
Bb-------5----------5---|
Gb------6----------6----|
Db-----6----------7-----|(x3)
Ab--4-4----------7------|
Eb------------5-5-------|

    G#
Eb---------|
Bb---------|
Gb---------|
Db--6-6-6--|
Ab--6-6-6--|
Eb--4-4-4--|


Verse

PreChorus

Chorus


Bridge:

    G#      G       F#      F
Eb-----------------------------------|
Bb-----------------------------------|
Gb-----------------------------------|
Db--6-6-6-6-5-5-5-5-4-4-4-4-3-3-3-3--|
Ab--6-6-6-6-5-5-5-5-4-4-4-4-3-3-3-3--|
Eb--4-4-4-4-3-3-3-3-2-2-2-2-1-1-1-1--|


    G#      A       F#      F
Eb-----------------------------------|
Bb-----------------------------------|
Gb-----------------------------------|
Db--6-6-6-6-5-5-5-5-4-4-4-4-3--3--3--|
Ab--6-6-6-6-5-5-5-5-4-4-4-4-3--3--3--|
Eb--4-4-4-4-3-3-3-3-2-2-2-2-1--1--1--|


Solo: 

Eb-----------------------|
Bb---------7-6-----------|
Gb-----6-8-----8-6s3(D)--|
Db---7-------------------|
Ab-----------------------|
Eb-----------------------|

From over verse,

Eb--------------------------------|
Bb-----------------------------9--|
Gb--10-8-10-8-10-6----10-8--10----|
Db--------------------------------|
Ab--------------------------------|
Eb--------------------------------|

Eb-----------------------------|
Bb-----------------------------|
Gb--10-8-10-6-8-6-5-3-5-3h5-3--|
Db-----------------------------|
Ab-----------------------------|
Eb-----------------------------|

Eb--4-----------------------------|
Bb----6-6-4-----------------------|
Gb----------6-5-6-5-6-5-3-5-3-3~--|
Db--------------------------------|
Ab--------------------------------|
Eb--------------------------------|

Eb-----------------------------------|
Bb-----------------------------------|
Gb--3-3-3--5-5-5--6-6-6--8-8-8--6-8--|
Db-----------------------------------|
Ab-----------------------------------|
Eb-----------------------------------|

Solo now goes over C#,A,B

Eb----------------------------------------|
Bb--4^-4-2--4^-4-2--4^-4-2--4^-4-2-4-4s9--|
Gb----------------------------------------|
Db----------------------------------------|
Ab----------------------------------------|
Eb----------------------------------------|

Eb-----------9---10s12-11-9--|
Bb--9h10p9-9---9-------------|
Gb---------------------------|
Db---------------------------|
Ab---------------------------|
Eb---------------------------|

  this bit is difficult for timing. keep it all smooth
  and play with feeling.
Eb--12-11-9---------------------------------------------|
Bb----------12-10--9-10-9-10-9-10-9---------------------|
Gb----------------------------------11-9-9-9^-----------|
Db--------------------------------------------13-13-11--|
Ab------------------------------------------------------|
Eb------------------------------------------------------|

  this bit is pretty fast
Eb-----------------------------------------------|
Bb-----------------------------------------------|
Gb-----------------------------------------------|
Db--11-11-13-12-11-------------------------------|
Ab-----------------13-12-11-13-12-11-------------|
Eb-----------------------------------13-12-11-9--|
   
Eb----------------------------------|
Bb----------------------------------|
Gb--6-6-6-8-8-8-8-9-9-9-11-11-11-11-|
Db--x-x-x-x-x-x-x-x-x-x-x--x--x--x--|
Ab--4-4-4-6-6-6-6-7-7-7-9--9--9--9--|
Eb----------------------------------|

Eb----------------------------------|
Bb----------------------------------|
Gb--6-6-6-8-8-8-8-9-9-9-11-11-11-11-|
Db--x-x-x-x-x-x-x-x-x-x-x--x--x--x--|
Ab--4-4-4-6-6-6-6-7-7-7-9--9--9--9--|
Eb----------------------------------|

PreChorus

Chorus(x2)


Outro:

Eb-----3----------3----------0-----0-1-3-8-10-|
Bb---5---5------5---5------1---1---1-3-5-9-12-|
Gb-5-------5--4-------4--2-------2------------|
Db--------------------------------------------|
Ab--------------------------------------------|
Eb--------------------------------------------|

  C#min
Eb--3--|
Bb--5--|
Gb--4--|
Db--5--|
Ab--3--|
Eb-----|

----------------------------

                                      -The Living End-
                                      Stay Away From Me
                                     Tabbed by Mick Fryar
                                     manumick20@yahoo.com

Intro: 

e--------------------------------------------------------------------------
b--------------------------------------------------------------------------
g-----4--5--7-8-9------------------4-----4-------5-----5-------7-----------
d--2--4--5--7-8-9----2-----2-------4-----4-4~----5-----5-5~----7-7----7----
a--2--2--3--5-6-7----2-----2-2~----2--5--2----5--3--6--3----3--5---6-------
e--0-----------------0--3--0----3------------------------------------------

e------------------------------------------------------
b------------------------------------------------------
g---------------4-----4-------5-----5-------7----------
d-2-----2-------4-----4-4~----5-----5-5~----7-7---7----
a-2-----2-2~----2--5--2----5--3--6--3----3--5---6------
e-0--3--0----3-----------------------------------------


e------------------------------------------------------
b------------------------------------------------------
g---------------4-----4-------5-----5-------7----------
d-2-----2-------4-----4-4~----5-----5-5~----7-7---7----
a-2-----2-2~----2--5--2----5--3--6--3----3--5---6------
e-0--3--0----3-----------------------------------------


e------------------------------------------------------
b------------------------------------------------------
g---------------4-----4-------5-----5-------7-7---7-7--
d-2-----2-------4-----4-4~----5-----5-5~----7----7-----
a-2-----2-2~----2--5--2----5--3--6--3----3--5---5------
e-0--3--0----3-----------------------------------------

e----------------------------------------------------------------------------------------------
b----------------------------------------------------------------------------------------------
g-9--9--------9--------------9--9---------9---------9--9-------9--7-7--9--9-------9-7-7-8-8----
d-9------9---9--9---9p7------9--------9--9----------9------9--9---7-7--9------9--9--7-7-8-8----
a-7----7----7-----------9p7--7-----7----7---7-6-5---7----7---7----5-5--7----7---7---5-5-6-6----
e----------------------------------------------------------------------------------------------

e-----------------------------------------
b-----------------------------------------
g-12-12-12-12-12-12-12-12-12-12-12-12-12--
d-12-12-12-12-12-12-12-12-12-12-12-12-12--
a-10-10-10-10-10-10-10-10-10-10-10-10-10--
e-----------------------------------------

e------------------------------------------------------
b------------------------------------------------------
g---------------4-----4-------5-----5-------7----------
d-2-----2-------4-----4-4~----5-----5-5~----7-7---7----
a-2-----2-2~----2--5--2----5--3--6--3----3--5---6------
e-0--3--0----3-----------------------------------------


e------------------------------------------------------
b------------------------------------------------------
g---------------4-----4-------5-----5-------7----------
d-2-----2-------4-----4-4~----5-----5-5~----7-7---7----
a-2-----2-2~----2--5--2----5--3--6--3----3--5---6------
e-0--3--0----3-----------------------------------------

e------------------------------------------------------
b------------------------------------------------------
g---------------4-----4-------5-----5-------7-7---7-7--
d-2-----2-------4-----4-4~----5-----5-5~----7----7-----
a-2-----2-2~----2--5--2----5--3--6--3----3--5---5------
e-0--3--0----3-----------------------------------------

e------------------------------------------------------
b------------------------------------------------------
g---------------4-----4-------5-----5-------7-7---7-7--
d-2-----2-------4-----4-4~----5-----5-5~----7----7-----
a-2-----2-2~----2--5--2----5--3--6--3----3--5---5------
e-0--3--0----3-----------------------------------------

e----------------------------
b-9-7-6-7-6-7--9-7-6-7-6-7---
g-9-7-6-7-6-7--9-7-6-7-6-7---
d-9-7-6-7-6-7--9-7-6-7-6-7---
a-7-5-4-5-4-5--7-5-4-5-4-5---
e----------------------------

e----------------------------
b-9-7-6-7-6-7--9-7-6-7-6-7---
g-9-7-6-7-6-7--9-7-6-7-6-7---
d-9-7-6-7-6-7--9-7-6-7-6-7---
a-7-5-4-5-4-5--7-5-4-5-4-5---
e----------------------------

e-------------------------------------
b-------------------------------------
g-9-9-9-6-7-7-7-7--9-9-9-6-7-7-7-7----
d-9-9-9-6-7-7-7-7--9-9-9-6-7-7-7-7----
a-7-7-7-4-5-5-5-5--7-7-7-4-5-5-5-5----
e-------------------------------------

e-------------------------------------
b-------------------------------------
g-9-9-9-6-7-7-7-7--9-9-9-6-7-7-7-7----
d-9-9-9-6-7-7-7-7--9-9-9-6-7-7-7-7----
a-7-7-7-4-5-5-5-5--7-7-7-4-5-5-5-5----
e-------------------------------------

Verse:  E - D - E - D -
        G - E - G - E   (x2)

Pre Chorus:  E - G - E (as many times as needed.)

Chorus: A - G (a couple of times)

Then:
e----------------------------
b-9-7-6-7-6-7--9-7-6-7-6-7---
g-9-7-6-7-6-7--9-7-6-7-6-7---
d-9-7-6-7-6-7--9-7-6-7-6-7--- (x2)
a-7-5-4-5-4-5--7-5-4-5-4-5---
e----------------------------

Verse

Pre Chorus

Chorus

Then,
e----------------------------
b-9-7-6-7-6-7--9-7-6-7-6-7---
g-9-7-6-7-6-7--9-7-6-7-6-7---
d-9-7-6-7-6-7--9-7-6-7-6-7--- (x2)
a-7-5-4-5-4-5--7-5-4-5-4-5---
e----------------------------

Pause for bass

Solo 1:
e----:----------------------
b----:----------------------
g----:----------------------
d-3~~:----------------------
a----:-----------------7----
e----:-0-0-3-0-5-0-6-7------ (x4 last section)

e----------------------
b----------------------
g----------------------
d-----------------7----
a-0-0-3-0-5-0-6-7------
e----------------------(x4)

e----------------------------
b-9-7-6-7-6-7--9-7-6-7-6-7---
g-9-7-6-7-6-7--9-7-6-7-6-7---
d-9-7-6-7-6-7--9-7-6-7-6-7--- (x2)
a-7-5-4-5-4-5--7-5-4-5-4-5---
e----------------------------

Then Guitar solo 2:over verse (good luck)

Pre Chorus

Chorus

Outro:
e----------------------------
b-9-7-6-7-6-7--9-7-6-7-6-7---
g-9-7-6-7-6-7--9-7-6-7-6-7---
d-9-7-6-7-6-7--9-7-6-7-6-7--- (x2)
a-7-5-4-5-4-5--7-5-4-5-4-5---
e----------------------------

e--------------------------:-----:-------
b--------------------------:-----:-------
g-9-7-6-7-6-7--9-7-6-7-6-5-:--9--:--9-9--
d-9-7-6-7-6-7--9-7-6-7-6-7-:--9--:--9-9--
a-7-5-4-5-4-5--7-5-4-5-4-5-:--7--:--7-7--
e--------------------------:-------------


--------------------------

                   - THE LIVINGE END -
                         Problem 
               Transcribed by Michael Fryar
                   manumick20@yahoo.com


x=dead note
*F*=Tap fret with index finger
p=pull off
h=hammer on
^=bend
~=vibrado
sw=sweep



Verse: 
                                  Bb                
e--------------------------------------------------|
b--------------------------------------------------|
g---------------------------------3-3-3-x-3-3-3-3--|
d---------------------------------3-3-3-x-3-3-3-3--|
a-3-3-3-3-3-3-3-3-3-3-3-3-3-3-3-3-1-1-1-x-1-1-1-1--|
e--------------------------------------------------|
 / p a l m    m u t e d..........\
 

  G    F    D#         F 
e------------------------------|
b------------------------------|
g-----------8-8-8-8-------10---|
d-5-5----3--8-8-8-8-----10--10-|
a-5-5--3-3--6-6-6-6----8------8|
e-3-3--1-1---------------------|

                                  Bb              
e-------------------------------------------------|
b-------------------------------------------------|
g---------------------------------3-3-3-x-3-3-3-3-|
d---------------------------------3-3-3-x-3-3-3-3-|
a-3-3-3-3-3-3-3-3-3-3-3-3-3-3-3-3-1-1-1-x-1-1-1-1-|
e-------------------------------------------------|
  

   G     F   D#         F
e----------------------------------------------|
b----------------------------------------------|
g-----------8-8-8-8-------10-----10-----10-----|
d-5-5----3--8-8-8-8-----10--10-10--10-10--10---|
a-5-5--3-3--6-6-6-6----8------8------8------8--|
e-3-3--1-1-------------------------------------|
  

Chorus:

  G#  D#  F   C#    G#  G  F    D#  C#      D#
e--------------------------------------------------|
b--------------------------------------------------|
g-----8-8-----6-6---------------8-8-6-6-6-6-8-8-8-8|
d-6-6-8-8-3-3-6-6---6-6-5-5-3-3-8-8-6-6-6-6-8-8-8-8|
a-6-6-6-6-3-3-4-4---6-6-5-5-3-3-6-6-4-4-4-4-6-6-6-6|
e-4-4-----1-1-------4-4-3-3-1-1--------------------|

  G#  D#   F  C#    G#  G   F   D#   C#     C#m     
e-------------------------------------------4-4-4-4|
b-------------------------------------------5-5-5-5|
g-----8-8-----6-6---------------8-8-6-6-6-6-6-6-6-6|
d-6-6-8-8-3-3-6-6---6-6-5-5-3-3-8-8-6-6-6-6-6-6-6-6|
a-6-6-6-6-3-3-4-4---6-6-5-5-3-3-6-6-4-4-4-4-4-4-4-4|
e-4-4-----1-1-------4-4-3-3-1-1--------------------|


  G#
e----------------------|
b----------------------|
g----------------------|
d-6-6-6-6-6-6-6-6-6-6--|
a-6-6-6-6-6-6-6-6-6-6--|
e-4-4-4-4-4-4-4-4-4-4--|
       
Verse

Chorus


Solo: 

  B                F#
e------------------------------------------------|
b-12^-----------------------sw10-10-14-12--------|
g------13-11-----------sw11---------------14-12--|
d-----------------sw12---------------------------|
a------------------------------------------------|
e------------------------------------------------|
  G#                          E
e--------------------------------------|
b---------------------------------9-9--|
g--------------------------------9--9--|
d-------9-11-13-11-9------------9---9--|
a-11-12--------------12-7-12--7--------|
e--------------------------------------|
  B          F#      G#                             E
e-------------------------------------------------------12-|
b----------------------------------------------------12-12-|
g----8^-8--------------------------------------11-13-------|
d-9^------9-8-------------11-13-11----11-13-11-------------|
a-------------9-----11-13----------13----------------------|
e----------------------------------------------------------|
                   / p a l m    m u t e d...........\

Fingertapping:
   *F*            *F*             *F*             *F*
e-14p7h11p7-(x4)--15p9h12p9-(x4)--12p7h11p7-(x4)--12p4h6p4-(x4)|
b--------------------------------------------------------------|
g--------------------------------------------------------------|
d--------------------------------------------------------------|
a--------------------------------------------------------------|
e--------------------------------------------------------------|
   B          F#                 G#m      E
e--------------------------------4-4------0---0--|
b--------------------------------4---4----0---0--|
g--------------------------------4--------1^--1--|
d--------------------------------6--------2^--2--|
a--5-7^-5-7-5--------------------6--------2^-----|
e-------------7~--7-6-5-3-2~-----4--------0------|

Verse

Chorus

----------------------------

                    - The Living End -
                   10:15 Saturday Night 
          Tabbed by, Mick Fryar,manumick20@yahoo.com


Intro:                     
e------------12----------|
b------12-12---12-9--9---|
g-9--9-------------------|
d------------------------|
a------------------------|
e------------------------|

  *
e---------------------------------------------------|
b---------------------------------------------------|
g-12(x10)--11(x10)--9(x9)-11-12(x10)--11(x10)--9(x7)|
d---------------------------------------------------|
a---------------------------------------------------|
e---------------------------------------------------|
           
  B       A  Am         A
e---------------0-0--------|
b--------------1---1-------|
g-4-4-4-4-2---2-----2---2--|
d-4-4-4-4-2--2-------2--2--|(x4)
a-2-2-2-2-0-0---------0-0--|
e--------------------------|

Verse: 

   G            F#                   E
e------------------------------------0-|
b------------------------------------0-|
g------------------------------------1-|
d-6-6-6-6-6-6-6-4-4-4-4-4-4-4-4------2-|
a-6-6-6-6-6-6-6-4-4-4-4-4-4-4-4-(x4)-2-|
e-3-3-3-3-3-3-3-2-2-2-2-2-2-2-2------0-|

Repeat Intro

Verse

Intro

Solo: 

e--------------------------------------|
b-9^-10--9^-7--9^-10--9p-7-------------|
g-9^-10--9^-7--9^-10--9p-7---7^--9-----|
d--------------------------9-----9-----|(x3)
a--------------------------------------|
e--------------------------------------|

e-------------7--7^---:-3-3-3-3-3-2-2-2-2-2-|
b-6-7-7-7-7-7---------:-3-3-3-3---2-2-2-2---|
g---------------------:---------------------|
d---------------------:---------------------|
a---------------------:---------------------|
e---------------------:---------------------|
 Repeat that last section as much as needed.


Verse

Intro (from where I put the *)

Verse

Intro

Outro:
e-------------------------------------|
b-------------------------------------|
g-------------------------------------|
d-2-4-5-4-5-7-7-5-4-5-7-9-9-4-5-4-2-0-|(x2)
a-------------------------------------|
e-------------------------------------|

Then finish the song by,
e------12----12------------12----12---------12--|
b---12----12----12------12----12----12------12--|
g-9----------------9-------------------9----9---|
d-----------------------------------------------|
a-----------------------------------------------|
e-----------------------------------------------|

-------
Tabbed by Mick Fryar
manumick20@yahoo.com
icq @ 67053832

(c)
comments
We did not receive enough feedback on this tab! Please rate:
print report bad tab
1 2 3 4 5
1 comment total.
0 reply
Shorty_rox_06 wrote on November 26 2006, 04:06 am

F*kn awsum job
5 stars



















tle rule

I want to post or [tab]
guest
You may want to rate the tab now too:
select rating
Please do not post tabs as comments. Select "correction" instead!