Oops, an error
Loading. Please wait.

Modern Artillery Tab

2,235 views 3 this week
2 commentsread comments
1 2 3 4 5
excellent!
x 5
add to favorites launch autoscroll
font size
0
reset
Autoscroll
+/-
esc
set tempo
stop
Contributor
WARNING: You are trying to view
                                    content from Ultimate-Guitar.com
                                    in an unauthorized application,
                                    which is prohibited.

                                    Please use an official Ultimate
                                    Guitar Tabs application for iPhone,
                                    iPad or Android to access legitimate
                                    chords, guitar, bass, and drum tabs
                                    from Ultimate-Guitar.com database.

                                    Type "ultimate guitar tabs" in Apple
                                    App Store's or Android Market's
                                    search to find the application.
Band: THE LIVING END
Album: MODERN ARTILLERY

I would like to thank:
5ironaudiorage for 'what would you do?'
puke_001@hotmail.com for 'tabloid magazine'
Rockn_Clay(& The Jonman for the solo) for 'who's gonna save us?'
Dave Locke for 'end of the world'
5ironaudiorage for 'jimmy'
Dean Parke for 'one said to the other'
5ironaudiorage for 'in the end'
5ironaudiorage for 'hold up'
steven-segal for 'the room'

thanks all of you!

i'm sorry i haven't added the rest of the songs,
but i couldn't find them anywhere...


/= slide up
\= slide down
p= pull off
h= hammer on
b= half bend
^= full bend
^= bend 2 frets
v= bring bend down
pm= palm mute
~= vibrado


---------------------------
song #1: what would you do?
---------------------------
tabbed by 5ironaudiorage


          D                                (Tapeover Part)
---------------------------------------------------------------
---------------------------------------------------------------
-------7-7-7-7--------------------------------7-77-7-7---------
-------7-7-7-7--ect--------------------------------------------
-------5-5-5-5-------------------------------------------------
---------------------------------------------------------------


     G                E          G        A      D
--------------------------------------------------------------------
--------------------------------------------------------------------
-------------------------------------------------7------------------
---5-5-5-5---------2-2-2-2----5-5-5-5--7-7-7-7---7------------------
---5-5-5-5--X2-----2-2-2-2X2--5-5-5-5--7-7-7-7---5------------------
---3-3-3-3---------0-0-0-0----3-3-3-3--5-5-5-5----------------------



Solo:
                                (Tremolo Ending)
-----------------------------------------------------------------
-7-7--5-5--3-3--2-2--3-3--2-2------------------------------------
-7-7--6-6--4-4--2-2--4-4--2-2---2--------------------------------
--------------------------------4--------------------------------X2
-----------------------------------------------------------------
-----------------------------------------------------------------

     G                 E min (Tremolo Ending)
-----------------------0-----------------------------------------
-----------------------0-----------------------------------------
-----------------------0-----------------------------------------
--5-5-5----------------2-----------------------------------------
--5-5-5--ect-----------2-----------------------------------------
--3-3-3----------------0-----------------------------------------


----------------------------------------10--------------------------
----------------------------------------10--------------------------
--------------------------------------------------------------------
---------------------------------/-11-------------------------------
--------2--5---------4--7---5---------------------------------------
--3-3----------5-5--------------------------------------------------




-------------------------
song #2: tabloid magazine
-------------------------
tabbed by puke_001@hotmail.com


intro1:

e:-7-----7-----7-----7-----7-----7------
B:-7-----7-----7-----7-----7-----7------
G:-9b11--9b11--9b11--9b11--9b11--9b11---
D:--------------------------------------
A:--------------------------------------
E:--------------------------------------


e:-7--------------------------------------------------
B:---7---------------------------------7--------------
G:------9-7----7------------------7-9-----9-7----7--9-
D:----------9-----9--5--5--9----9-------------9-------
A:----------------------------------------------------
E:----------------------------------------------------

e:-7-----7-----7-----7-----7-----7-----
B:-7-----7-----7-----7-----7-----7-----
G:-9b11--9b11--9b11--9b11--9b11--9b11--
D:-------------------------------------
A:-------------------------------------
E:-------------------------------------


e:--7---------------------------------------------------------------------
B:-----7------------------------------------------------------------------
G:-------9-7----7-------7---7-------7---7-------7-------7---7---7---7-----
D:-----------9----9-7-9---9---9-7-9---9---9-7-9---9-7-9---9---9---9---9---
A:------------------------------------------------------------------------
E:------------------------------------------------------------------------

intro2:

e:------------------------------------
B:------------------------------------
G:-x-x-4-4-x-x-4-x-7-7----------------
D:-x-x-4-4-x-x-4-x-7-7-7-7------------
A:-x-x-2-2-x-x-2-x-5-5-7-7-2-2--------
E:---------------------5-5-0-0--------

verse:

e:-------------------------------------------------------
B:-------------------------------------------------------
G:-------------------------------------------------------
D:-x-x-7-x-x-7-x-x-7-x-x-7-7-x-x-7-x-x-7-x-x-7-x-x-7-7---
A:-x-x-7-x-x-7-x-x-7-x-x-7-7-x-x-7-x-x-7-x-x-7-x-x-7-7---
E:-x-x-5-x-x-5-x-x-5-x-x-5-5-x-x-5-x-x-5-x-x-5-x-x-5-5---

                                                                X2
e:-----------------------------------------------------
B:-----------------------------------------------------
G:-x-x-7-x-x-7-x-x-7-x-x-7-7---------------------------
D:-x-x-7-x-x-7-x-x-7-x-x-7-7-x-x-7-x-x-7-x-x-7-x-x-7-7-
A:-x-x-5-x-x-5-x-x-5-x-x-5-5-x-x-7-x-x-7-x-x-7-x-x-7-7-
E:---------------------------x-x-5-x-x-5-x-x-5-x-x-5-5-

pre chorus:

e:-----------------------------------------------------------------
B:-----------------------------------------------------------------
G:-7-7-x-x-x-x-7-7-9-9-x-x-x-x-9-9-11-11-x-x-x-x-11-11-4-4-x-x-x-x-
D:-7-7-x-x-x-x-7-7-9-9-x-x-x-x-9-9-11-11-x-x-x-x-11-11-4-4-x-x-x-x-
A:-5-5-x-x-x-x-5-5-7-7-x-x-x-x-7-7-9--9--x-x-x-x-9--9--2-2-x-x-x-x-
E:-----------------------------------------------------------------

e:----------------------------------
B:----------------------------------
G:--4-4-6-6-6-6-6--------4--4-4-4-4-
D:--4-4-6-6-6-6-6--6-----4--4-4-4-4-
A:--2-2-4-4-4-4-4--6-----2--2-2-2-2-
E:-----------------4----------------

chorus:

e:-0--0----------3-3-3-3-------------
B:-3--3----------3-3-3-3-------------
G:-4--4--3-3-3-3-0-0-0-0-2-2-2-2-----
D:-4--4--4-4-4-4-0-0-0-0-2-2-2-2----- X3
A:-2--2--4-4-4-4-2-2-2-2-0-0-0-0-----
E:-------2-2-2-2-3-3-3-3-------------


e:--------------------------------
B:--------------------------------
G:-4-4-4-4-4-4-4-4-4-7-7-7-7-7-7--  <--- play this bit twice in the 2nd chorus     
D:-4-4-4-4-4-4-4-4-4-7-7-7-7-7-7--
A:-2-2-2-2-2-2-2-2-2-5-5-5-5-5-5--
E:--------------------------------

intro2 

verse

pre chorus

chorus



bridge:

e:----------------------------------------------------
B:----------------------------------------------------
G:-------7-x-7-9-x-9-7-x-7-------7-x------------------
D:-7-x-7-7-x-7-9-x-9-7-x-7-7-x-7-7-x-7--2--7-7-------- X3
A:-7-x-7-5-x-5-7-x-7-5-x-5-7-x-7-5-x-7--2--7-7--------
E:-5-x-5-------------------5-x-5-----5--0--5-5--------


pre chorus(palm muted, no barred notes)


intro1



thing before last chorus:

e:------------------
B:------------------
G:-2-2-2-2-3-3-3-3--
D:-2-2-2-2-3-3-3-3--
A:-0-0-0-0-1-1-1-1--
E:------------------

last chorus: 


e:-0--0----------3-3-3-3-------------
B:-3--3----------3-3-3-3-------------
G:-4--4--3-3-3-3-0-0-0-0-2-2-2-2-----
D:-4--4--4-4-4-4-0-0-0-0-2-2-2-2----- X7
A:-2--2--4-4-4-4-2-2-2-2-0-0-0-0-----
E:-------2-2-2-2-3-3-3-3-------------


e:-0--0----------3-3-3-3----------0---
B:-3--3----------3-3-3-3----------3---
G:-4--4--3-3-3-3-0-0-0-0-4-5-4-5--4---
D:-4--4--4-4-4-4-0-0-0-0-x-x-x-x--4--- 
A:-2--2--4-4-4-4-2-2-2-2-2-3-2-3--2---
E:-------2-2-2-2-3-3-3-3--------------



-----------------------------
song #3: who's gonna save us?
-----------------------------
tabbed by  Rockn_Clay


INTRO

EI-----------------I     EI---------------I-----II
BI-3-1-0-----------I     BI---------------I-----II
GI-------0-2-0-4-0-I  OR GI-7-5-4---------I-7-7-II
DI-----------------I     DI-------5-7-5-4-I-7-7-II
AI-----------------I     AI---------------I-5-5-II
EI-----------------I     EI---------------I-----II
         X8                        X8

VERSE
VERSE RIFF A
   G5    D5    G5    D5    E5    C5    G5          E5      A5  E5     B5   
C5
EI-----------------------------------------------------------------------------------------I
BI-----------------------------------------------------------------------------------------I
GI-----------7-----------7-----------5---------------------2-2---------4-4-5-5-5-5-5-5-5-5-I
DI-----5-----7-----5-----7-----2-----5-----5-----5-----2---2-2-----2---4-4-5-5-5-5-5-5-5-5-I
AI-----5-5-5-5-----5-5-5-5-----2-3-3-3-----5-----5-----2---0-0-----2---2-2-3-3-3-3-3-3-3-3-I
EI-3-3-3-------3-3-3-------0-0-0-------3-3-3-3-3-3-0-0-0-0-----0-0-0-0---------------------I
PM~~~   ~~~   ~~~   ~~~   ~~~   ~~~   ~~~   ~~~   ~~~   ~~~~~ ~~~   
~~~~~~~~~~~~~~~~~~~~~~

VERSE RIFF B
   G5    D5    G5    D5    E5    C5    G5          E5      A5  E5     B5   
C5              D5
EI---------------------------------------------------------------------------------------------I
BI---------------------------------------------------------------------------------------------I
GI-----------7-----------7-----------5---------------------2-2---------4-4-5-5-5-5-5-5-5-5-3-3-I
DI-----5-----7-----5-----7-----2-----5-----5-----5-----2---2-2-----2---4-4-5-5-5-5-5-5-5-5-3-3-I
AI-----5-5-5-5-----5-5-5-5-----2-3-3-3-----5-----5-----2---0-0-----2---2-2-3-3-3-3-3-3-3-3-5-5-I
EI-3-3-3-------3-3-3-------0-0-0-------3-3-3-3-3-3-0-0-0-0-----0-0-0-0-------------------------I
PM~~~   ~~~   ~~~   ~~~   ~~~   ~~~   ~~~   ~~~   ~~~   ~~~~~ ~~~   ~~~~~~
THERE ARE FAINT SONDS OF THE INTRO WHEN CHRIS IS PLAYING UN PALM MUTED C5 
CHORD AT THE END OF THE
SECOND LINE, SO IF YOU HAVE TWO GUITARISTS IT WOULD BE GOOD.

CHORUS
   G5  D5  G5  D5  E5  C5  G5      E5  A5  E5  B5  C5          D5
EI-----------------------------------------------------------------II
BI-----------------------------------------------------------------II
GI-----7-7-----7-7-----5-5-------------2-2-----4-4-5-5-5-5-5-5-7-7-II
DI-5-5-7-7-5-5-7-7-2-2-5-5-5-5-5-5-2-2-2-2-2-2-4-4-5-5-5-5-5-5-7-7-II
AI-5-5-5-5-5-5-5-5-2-2-3-3-5-5-5-5-2-2-0-0-2-2-2-2-3-3-3-3-3-3-5-5-II
EI-3-3-----3-3-----0-0-----3-3-3-3-0-0-----0-0---------------------II

VERSE RIFF B (X1)

CHORUS(X1)

SOLO

1---------------------------------------------------------
2----8-9-8------8-9-8----------------------9p8------------
3-3/8-----10-888-----10-8-888--------8----8---------------
4----------------------------10-88-88-8h10----------------
5---------------------------------------------------------
6---------------------------------------------------------

1----------------------------11-------11------------------
2--8-9-8-11-888-8-9-8-11b(13)--11b(13)--11>>>>\-----------
3-8-------------------------------------------------------
4---------------------------------------------------------
5---------------------------------------------------------
6---------------------------------------------------------

POST SOLO (INTRO X 14)

VERSE RIFF B (X1) PLAY THE C5 CHORD NEAR THE END TWICE AS LONG.

CHORUS (X2)

OUTRO
   C5                              D5  G5
EI---------------------------------------II
BI---------------------------------------II
GI-5-5-5-5-5-5-5-5-5-5-5-5-5-5-5-5-7-7---II
DI-5-5-5-5-5-5-5-5-5-5-5-5-5-5-5-5-7-7-5-II
AI-3-3-3-3-3-3-3-3-3-3-3-3-3-3-3-3-5-5-5-II
EI-------------------------------------3-II

THE OUTRO HAS TWO GUITARS AS WELL. ONE PLAYS THE ABOVE AND THE OTHER PLAYS 
THE INTRO.



-------------------------
song #4: end of the world
-------------------------
tabbed by Dave Locke


INTRO

EI---2-----0-----2-----0-----2-----0-----2-3p2-----------II
BI---------------------------------------------5-3-------II
GI-4---4-3---3-4---4-3---3-4---4-3---3-4-----------2-3-4-II
DI-------------------------------------------------------II
AI-------------------------------------------------------II
EI-------------------------------------------------------II

VERSE

   B5
EI-----------------I
BI-----------------I
GI-4-4-4-4-4-4-4-4-I 
DI-4-4-4-4-4-4-4-4-I
AI-2-2-2-2-2-2-2-2-I
EI-----------------I
PM~~~~~~~~~~~~~~~~~                     
        (X8)                      

PRE CHORUS
         
EI---------------------I
BI-----------3---------I
GI-----------4-3---2-4-I
DI---------5-4-4-5-2-4-I
AI-2-0-----5-2-4-5-0-2-I
EI-----3-2-3---2-3-----I


VERSE


PRE CHORUS


CHORUS
   B5               A5               B5               A5
EI--------------------------------------------------------------------I
BI--------------------------------------------------------------------I
GI-4-4-4-4-4-4-4-4-------------------4-4-4-4-4-4-4-4------------------I
DI-4-4-4-4-4-4-4-4--7-7-7-7-7-7-7-7--4-4-4-4-4-4-4-4--7-7-7-7-7-7-7-7-I
AI-2-2-2-2-2-2-2-2--7-7-7-7-7-7-7-7--2-2-2-2-2-2-2-2--7-7-7-7-7-7-7-7-I
EI------------------5-5-5-5-5-5-5-5-------------------5-5-5-5-5-5-5-5-I

  E5        B5      F#5 G5A5B5
EI----------------------------II
BI----------------------------II
GI----------4-4-4-4-------2-4-II
DI-2-2-2-2--4-4-4-4-4-4-5-2-4-II
AI-2-2-2-2--2-2-2-2-4-4-5-0-2-II
EI-0-0-0-0----------2-2-3-----II


INTRO


VERSE


PRE CHORUS


CHORUS


INTERLUDE


EI-------------------------------------------------I-----------------II
BI-------------------------------------------------I-----------------II
GI-4-4-4-4-4-4-4-4---------------------------------I-----------------II THIS WHOLE LINE X1
DI-4-4-4-4-4-4-4-4-4-4-4-4-4-4-4-4-7-7-7-7-7-7-7-7-I-2-2-2-2-2-2-2-2-II
AI-2-2-2-2-2-2-2-2-4-4-4-4-4-4-4-4-7-7-7-7-7-7-7-7-I-2-2-2-2-2-2-2-2-II
EI-----------------2-2-2-2-2-2-2-2-5-5-5-5-5-5-5-5-I-0-0-0-0-0-0-0-0-II
                                                           (X4)
THE INTERLUDE IM NOT TO SURE ABOUT. ITS NOT RIGHT I KNOW THAT FOR SURE
BUT JUST PLAY IT BECAUSE IT SOUNDS ALRIGHT.

SOLO

EI-----------------I----------------------------I
BI-----------------I----------------------------I
GI-4-4-4-4-4-4-4-4-I------------------------2-4-I
DI-4-4-4-4-4-4-4-4-I-5-5-5-5--4-4-4-4-4-4-5-2-4-I
AI-2-2-2-2-2-2-2-2-I-5-5-5-5--4-4-4-4-4-4-5-0-2-I
EI-----------------I-3-3-3-3--2-2-2-2-2-2-3-----I
        (X4)

BEING THE LIVING END, THERE SOLOS ARE VERY HARD TO PICK OUT, BUT I HAVE WRITTEN OUT
THE CHORDS IN THE BACKGROUND. 


POST SOLO

EI-------I
BI-------I
GI-------I
DI-------I
AI---1-2-I
EI-2-----I
   (X14)


PRE CHORUS


CHORUS (X2)


OUTRO

EI---2-----0-----2-----0-----2-----0---------------------2-II
BI-------------------------------------------------------3-II
GI-4---4-3---3-4---4-3---3-4---4-3---3-4-3-2-------------4-II
DI-------------------------------------------4-3-2-------4-II
AI-------------------------------------------------4-0-2-2-II
EI---------------------------------------------------------II



--------------
song #5: jimmy
--------------
tabbed by 5ironaudiorage


Intro:


e--0----4--2p0-----------------4-4--4-4----|
b--2----5------2---------------5-4--5-4----|
g--1-------------1-----4----6--6-4--6-4----|
d--2----------------6----6--6--6-4--6-4----|
a--0----------------6-------4--------------|
e-------------------4----------------------|
"Jimmy, what's your vote?"

e------------------------------|
b------2------------------2----|
g--------1-----4--------2------|
d----2-----------6-------------|
a--0---------6--------4--------|
e----------4--------2----------|
"You don't have to repay them,
after all."


Verse 1:

e--4--4--4--4--4--4--4----------|
b--5--5--5--5--5--5--5----------|
g--6--6--6--6--6--6--6----------|
d--6--6--6--6--6--6--6----------|
a--4--4--4--4--4--4--4----------|
e----------------------4/5\4----|

e--4--4--4--4--4--4--4--4--4--4--4--4--4--4--4--4--|
b--5--5--4--4--5--5--4--4--5--5--4--4--4--4--4--4--|
g--6--6--4--4--6--6--4--4--6--6--4--4--4--4--4--4--|
d--6--6--4--4--6--6--4--4--6--6--4--4--6--6--6--6--|
a--4--4--4--4--4--4--4--4--4--4--4--4--6--6--6--6--|
e--------------------------------------4--4--4--4--|
"Jimmy told of those who'd been cheated,
but never defeated, just morally wrong."

e--4--4--4--4--4--4--4--4--4--4--4--4--4--4--4--4--|
b--5--5--4--4--5--5--4--4--5--5--4--4--4--4--4--4--|
g--6--6--4--4--6--6--4--4--6--6--4--4--4--4--4--4--|
d--6--6--4--4--6--6--4--4--6--6--4--4--6--6--6--6--|
a--4--4--4--4--4--4--4--4--4--4--4--4--6--6--6--6--|
e--------------------------------------4--4--4--4--|
"Jimmy told of those who were jaded,
their colours had faded, like they didn't belong."


Pre Chorus:

e-----------------------------------|
b----2-------4---------5-5-5-5-5----|
g------2-------4----6--6-6-6-6-6----|
d--------4-------6--6--6-6-6-6-6----|
a-------------------4---------------|
e--2-------4------------------------|
"And they lied, 
a new life they were seeking 

e---------------------------4-4-4---|
b----2-------4--------------5-5-5---|
g------2-------4----6-6-6-6-6-6-6---|
d--------4-------6--6-6-6-6-6-6-6---|
a-------------------4-4-4-4-4-4-4---|
e--2-------4------------------------|
                    pm......
"Yes they lied,
now thier plans are leaking."


Chorus 1: 

e-------------------4--2p0-------------------4-4--4-4----|
b--2-2-2-2-2-2-2-2--5------2-----------------5-4--5-4----|
g--1-1-1-1-1-1-1-1-----------1-------4----6--6-4--6-4----|
d--2-2-2-2-2-2-2-2--------------6--6---6--6--6-4--6-4----|
a--0-0-0-0-0-0-0-0--------------6--6------4--------------|
e-------------------------------4--4---------------------|
"Jimmy, what's your vote?"

e------------------------------|
b------2------------------2----|
g--------1-----4--------2------|
d----2-----------6-------------|
a--0---------6--------4--------|
e----------4--------2----------|
"You don't have to repay them,
after all."


Verse 2: Same as Verse 1, but with
         a second guitar in the backround


e--------------------------------------------------------------|
b--5-5-5-5-4-4-4-4-2-2-2-2-0-0-0-0------------------------2-4--|
g----------------------------------1-1-1-1-1------------1------|
d--------------------------------------------4-2-1-------------|
a--------------------------------------------------------------|
e--------------------------------------------------------------|
   pm.........................................................
Jimmy told of those who had made it,
and those who had paid it, but the price was wrong."

e-----------------------------------------------------|
b--5-5-5-5-4-4-4-4-2-2-2-2-0-0-0-0--------------------|
g----------------------------------1-1-1-1-1----------|
d--------------------------------------------4-2------|
a-----------------------------------------------------|
e-----------------------------------------------------|
   pm.............................................
"But everybody's to busy fighting,
to bother deciding, what has to be done."


Chorus 2:

e-------------------4--2p0-------------------4-4--4-4----|
b--2-2-2-2-2-2-2-2--5------2-----------------5-4--5-4----|
g--1-1-1-1-1-1-1-1-----------1-------4----6--6-4--6-4----|
d--2-2-2-2-2-2-2-2--------------6--6---6--6--6-4--6-4----|
a--0-0-0-0-0-0-0-0--------------6--6------4--------------|
e-------------------------------4--4---------------------|
"Jimmy, what's your vote?"

e------------------------------4-4-4-4-4-4-4-4-4-0-0-0------------|
b------2------------------2----5-5-5-4-4-4-5-5-5-0-0-0------------|
g--------1------4-------2------6-6-6-6-6-6-6-6-6-4-4-4-4h6p4------|
d----2------------6------------6-6-6-6-6-6-6-6-6-------------6----|
a--0---------6--------4----------------------------------------7--|
e----------4--------2---------------------------------------------|
"You don't have to repay them,
after all."
e--------------------------------------|
b------2------------------2------------|
g--------1-----4--------2--------------|
d----2-----------6---------------------|
a--0---------6--------4--------~~~~~~--|
e----------4--------2----------~~~~~~--|
                             (pickslide)
"No you don't have to repay them,
after all."


Solo:

e---------------------------------------------------------------------------|
b---------------------------------------------------------------------------|
g---------------------------------------------------------------------------|
d-------------------4----------------------------------------------9--8--7--|
a-4~--7-4-----2-3-4---7-4-----2-3-4~--7-4-----2-3---2h4p2---2h4-4/-6--5--4--|
e---------4-4-------------4-4-------------4-4-----4-------4-----------------|

e---------------------------------------------------------------------------|
b---------------------------------------------------------------------------|
g-----------------------------------------------------------------------5b--|
d-------------------4-----------------------------------------------4-6-----|
a-4~--7-4-----2-3-4---7-4-----2-3-4~--7-4-----2-3---2h4p2---2h4-4/7---------|
e---------4-4-------------4-4-------------4-4-----4-------4-----------------|

e-------------------------------------------------4------------------|
b-----5-------------7-5---------------5---------4---7^^~--7^^~--7^^--|
g-6~----6-----4-5-6-----6-----4-5-6~----6-----5-5--------------------|
d---------6-6-------------6-6-------------6-6------------------------|
a--------------------------------------------------------------------|
e--------------------------------------------------------------------|

e-------9bv--9----9b--/11-11bv--14^^--14-------------9-7----0-------------|
b--9h12--------12---------------14^^-----17p14--/9-9-9---9-12p9h12p9h12---|
g-------------------------------------------------------------------------|
d-------------------------------------------------------------------------|
a-------------------------------------------------------------------------|
e-------------------------------------------------------------------------|

e-----------------------------------------|
b-----------------------------------------|
g--6---4~---------------------------------|
d-----------4h6----------------4--6-6~----|
a---------------7-4-------4-6-------------|
e-------------------4--7------------------|


Bridge:

e--4--2p0------4----4---------0----|
b--5------2----4----5---------2----|
g-----------1--4----6---------1----|
d--------------6----6-------2-2----|
a--------------6----4----0--0-0----|
e--------------4-------------------|
"Jimmy, it seems as though it can't be sold
as easy as a story, can be told."

e--4--2p0------4----4----------------|
b--5------2----4----5------5--4h5----|
g-----------1--4----6----6--------6--|
d--------------6----6--6-------------|
a--------------6----4----------------|
e--------------4---------------------|
"Jimmy"

e-------------------------------------|
b-------------------------------------|
g--1-1-1-1----------------------------|
d--2-2-2-2-6-6-6-6-4-4-4-4-4-4-4-4----| x3
a--0-0-0-0-x-x-x-x-4-4-4-4-4-4-4-4----|
e----------4-4-4-4-2-2-2-2-2-2-2-2----|
   pm.............................
"You don't have to re-pay them,
no you don't have to re-pay them,
no you don't have to re-pay them after all."


Verse 3:

e--4--4--4--4--4--4--4----------|
b--5--5--5--5--5--5--5----------|
g--6--6--6--6--6--6--6----------|
d--6--6--6--6--6--6--6----------|
a--4--4--4--4--4--4--4----------|
e----------------------4/5\4----|

e--4--4--4--4--4--4--4--4--4--4--4--4--4--4--4--4--|
b--5--5--4--4--5--5--4--4--5--5--4--4--4--4--4--4--|
g--6--6--4--4--6--6--4--4--6--6--4--4--4--4--4--4--|
d--6--6--4--4--6--6--4--4--6--6--4--4--6--6--6--6--|
a--4--4--4--4--4--4--4--4--4--4--4--4--6--6--6--6--|
e--------------------------------------4--4--4--4--|
"Jimmy told of those who'd been cheated,
but never defeated, just morally wrong."

e--4--4--4--4--4--4--4--4--4--4--4--4--4--4--4--4--|
b--5--5--4--4--5--5--4--4--5--5--4--4--4--4--4--4--|
g--6--6--4--4--6--6--4--4--6--6--4--4--4--4--4--4--|
d--6--6--4--4--6--6--4--4--6--6--4--4--6--6--6--6--|
a--4--4--4--4--4--4--4--4--4--4--4--4--6--6--6--6--|
e--------------------------------------4--4--4--4--|
"But he believed in those who were jaded,
their colours had faded, like they didn't belong." 


Last Chorus:

e-------------------4--2p0----------------------------|
b--2-2-2-2-2-2-2-2--5------2--------------------------|
g--1-1-1-1-1-1-1-1-----------1-------4----6-6-6-6--4--|
d--2-2-2-2-2-2-2-2--------------6--6---6--6-6-6-6--4--|
a--0-0-0-0-0-0-0-0--------------6--6------4-4-4-4--2--|
e-------------------------------4--4------------------|
"Jimmy, what's your vote?"

e-------------------4--2p0-------------------4-4--4-4----|
b--2-2-2-2-2-2-2-2--5------2-----------------5-4--5-4----|
g--1-1-1-1-1-1-1-1-----------1-------4----6--6-4--6-4----|
d--2-2-2-2-2-2-2-2--------------6--6---6--6--6-4--6-4----|
a--0-0-0-0-0-0-0-0--------------6--6------4--------------|
e-------------------------------4--4---------------------|
"Jimmy, what's your vote?"

e----------------------------------------------------------|
b------2------------------2----5-5--5-5--5--5-5--5-5--5----|
g--------1-----4--------2------6-6--6-6--6--6-6--6-6--6----|
d----2-----------6-------------6-6--6-6--6--6-6--6-6--6----|
a--0---------6--------4------------------------------------|
e----------4--------2--------------------------------------|
"You don't have to repay them,
after all."


Outro: Mostly 2 guitars

Rythem
A, G#m, F#m  x8

Lead
e---------------------------------|---------|
b--5-5--5-5--5--5-5--5-5--5-------|--7-5-7--|
g--6-6--6-6--6--6-6--6-6--6-------|--6-6-6--|
d--6-6--6-6--6--6-6--6-6--6--(x8)-|--6-6-6--|
a---------------------------------|---------|
e---------------------------------|---------|
"Now we're all faded (x4)
Well Jimmy told of those who'd been cheated,
never defeated, just morally wrong
Yeah Jimmy told of those who were jaded,
their colours had faded like they didn't belong."


Outro:

e--4--4--4--4--4--4--12--|
b--5--5--4--4--4--4--14--|
g--6--6--4--4--4--4--13--|
d--6--6--4--4--6--6--14--|
a--4--4--4--4--4--4------|
e------------------------|



------------------------------
song #6: one said to the other
------------------------------
tabbed by Dean Parke


Intro
e|-----------------------------------|
B|-----------------------------------|
G|---7-7-7-7-7-7-7-7-7-7-7-7-7-7-7---|
D|---7-7-7-7-7-7-7-7-7-7-7-7-7-7-7---|
A|---5-5-5-5-5-5-5-5-5-5-5-5-5-5-5---|
E|-----------------------------------|


Chorus x2
e|------------------------------------------------------------|
B|------------------------------------------------------------|
G|------------6-6-6-6------------7-7-7-7------------9-9-9-9---|
D|---7--7-7---6-6-6-6---4--4-4---7-7-7-7---4--4-4---9-9-9-9---|
A|---7--7-7---4-4-4-4---4--4-4---5-5-5-5---4--4-4---7-7-7-7---|
E|---5--5-5-------------2--2-2-------------2--2-2-------------|


Chorus Fill
e|-------------------------------------------------------------|
B|-------------------------------------------------------------|
G|-------------------------------------------------------------|
D|---2-2------2-2----------------------------------------------|
A|---2-2------2-2------4b5r4-2-0-------------------------------|
E|---0-0------0-0----------------4--0--------------------------|


Verse x2
e|-------5----------4----------2----------7----------2----------4-----4--2--0-|
B|-------5----------5----------2----------7----------2----------5-----5--3--2-|
G|-------6----------6----------2----------7----------2----------6-----6--4--2-|
D|-------7----------6----------4----------7----------4----------6-----6--4--2-|
A|-------7------4-4-4------4-4-4------5-5-5------4-4-4------4-4-4-----4--2--0-|
E|---5-5-5--------------------------------------------------------------------|


Pre-Chorus
e|-------------------------------------------|
B|---7--7--7--7--7--7--7--7--7--7--7--7--7---|
G|-------------------------------------------|
D|-------------------------------------------|
A|-------------------------------------------|
E|-------------------------------------------|


Chorus x2

Chorus Fill


Pre-Verse thingy
e|---5--------------4----------2----------7----------2----------4-----4--2--0-|
B|---5--------------5----------2----------7----------2----------5-----5--3--2-|
G|---6--6\----------6----------2----------7----------2----------6-----6--4--2-|
D|---7--7\----------6----------4----------7----------4----------6-----6--4--2-|
A|---7--7\------4-4-4------4-4-4------5-5-5------4-4-4------4-4-4-----4--2--0-|
E|---5------------------------------------------------------------------------|

Verse x2

Pre-Chorus

Chorus

Chorus Fill 2
e|------------------------------------------|
B|------------------------------------------|
G|------------------------------------------|
D|---2-2------2-2------xx-2-xx-3-xx-4-5-6---|
A|---2-2------2-2------xx-2-xx-3-xx-4-5-6---|
E|---0-0------0-0------xx-0-xx-1-xx-2-3-4---|


Solo
e|--------------------------------------------5----------------------------|
B|-------------4b6-4b6-4b6r4p2-------5----5b7---5b7r5--2--3--5--5/7--5-----|
G|---4b6--4-2--------------------4/6---4-----------------------------------|
D|-------------------------------------------------------------------------|
A|-------------------------------------------------------------------------|
E|-------------------------------------------------------------------------|

e|---7b9---7p5-----------------xxx-|--------------|---------------------------|
B|-------------7p5-------------xxx-|------2-----2-|---------------------------|
G|-----------------6p4\2h4p2---xxx-|--2h4---2h4---|--2h4-2--------------------|
D|-----------------------------xxx-|--------------|--------2h4-2----------2-4-|
A|-----------------------------xxx-|--------------|---------------2-0-2-4-----|
E|-----------------------------xxx-|--------------|---------------------------|
                                   \  Play Alot  / 

e|-----------------------9h12p9h12-14-12p9---------|
B|-------10h12p10h12p10--------------------12------|
G|---/11--------------------------------------11---|
D|-------------------------------------------------|
A|-------------------------------------------------|
E|-------------------------------------------------|

Pre-Chorus

Verse

Pre-Chorus

Chorus

Chorus Fill 3
e|--------------------------------|
B|--------------------------------|
G|--------------------------------|
D|---2-2--------------------------|
A|---2-2--------------------------|
E|---0-0-//////////////////////---|

Chorus

Chorus Fill 2



-------------------
song #7: in the end
-------------------
tabbed by  5ironaudiorage


Intro:

e-------7---7--4----4--4--------|-------7---7---------------|
b--9----7---7--5----4--4--------|--9----7---7--9----9-------|
g--9----8---8--6----4--4--------|--9----8---8--9--x-9-------|
d--9--x-9---9--6--x-6--6--(x3)--|--9--x-9---9--9--x-9-------|
a--7--x-9---9--4--x-6--6--------|--7--x-9---9--7--x-7-------|
e-----x-7---7-----x-4--4--------|-----x-7---7----------7-9--|


Verse 1:
   E           B           Cm           Am           Cm            F#
e--------------7----7---7--4----4---4---5----5---5---4----4---4----2---2--2--|
b--9----9---9--7----7---7--5----5---5---5----5---5---5----5---5----2---2--2--|
g--9--x-9---9--8----8---8--6--x-6---6---5----5---5---6--x-6---6----3---3--3--|
d--9--x-9---9--9--x-9---9--6--x-6---6---7--x-7---7---6--x-6---6----4---4--4--|
a--7--x-7---7--9--x-9---9--4--x-4---4---7--x-7---7---4--x-4---4----4---4--4--|
e--------------7--x-7---7---------------5--x-5---5---------------0-2---2--2--|
"Well there's something that I really
Need to say
Have you ever wondered why the
Truth is hard to say"

     Am            E
e----5----5---5-----------------------------|
b----5----5---5----9----9------9----9-------|
g----5----5---5----9--x-9------9--x-9-------|
d----7--x-7---7----9--x-9------9--x-9-------|
a----7--x-7---7----7--x-7------7--x-7-------|
e----5--x-5---5------------7-9---------7-9--|
"Why must it be this way?"



Verse 2:

e--------------7----7---7--4----4---4---5----5---5---4----4---4----2---2--2--|
b--9----9---9--7----7---7--5----5---5---5----5---5---5----5---5----2---2--2--|
g--9--x-9---9--8----8---8--6--x-6---6---5----5---5---6--x-6---6----3---3--3--|
d--9--x-9---9--9--x-9---9--6--x-6---6---7--x-7---7---6--x-6---6----4---4--4--|
a--7--x-7---7--9--x-9---9--4--x-4---4---7--x-7---7---4--x-4---4----4---4--4--|
e--------------7--x-7---7---------------5--x-5---5---------------0-2---2--2--|
"A broken deal
And now it's time to pay
Trying hard to understand
What happened yesterday"


e----5----5---5-----------------------------|
b----5----5---5----9----9------9----9--9----|
g----5----5---5----9--x-9------9--x-9--9----|
d----7--x-7---7----9--x-9------9--x-9--9----|
a----7--x-7---7----7--x-7------7--x-7--7----|
e----5--x-5---5------------7-9--------------|
"But it's the game we play"



Post Verse:

e--6--6--6--6--6--6--6--6--0----------------------|
b--7--7--7--7--7--7--7--7--0-------0--------0-----|
g--8--8--8--8--8--8--8--8--1----1-----3--1-----3--|
d--8--8--8--8--8--8--8--8--2----------------------|
a--6--6--6--6--6--6--6--6--2----------------------|
e--------------------------0----------------------|
"I see the red light signal
calling me home the red lights are."


e--6--6--6--6--6--6--6--6--4--------------------------------|
b--7--7--7--7--7--7--7--7--4--------------------------------|
g--8--8--8--8--8--8--8--8--4-----3--4----3-4-3-4-3-4-3-4----|
d--8--8--8--8--8--8--8--8--6--6--------6--------------------|
a--6--6--6--6--6--6--6--6--6--------------------------------|
e--------------------------4--------------------------------|
"See the red light, and they're
calling me home"



Pre Chorus:

e--0-------------------------------0-----------------------------------|
b--2-------------------------------0-----------------------------------|
g--1-------------------------------1-----------------------------------|
d--2--2-2-2-2-2-2-2-2-2-2-2-2-2-2--2-----------------------------------|
a--0--0-0-0-0-0-0-0-0-0-0-0-0-0-0--2--2-2-2-2-2-2-2-2-2-2-2-2-2-2-2-2--|
e----------------------------------0--0-0-0-0-0-0-0-0-0-0-0-0-0-0-0-0--|
      pm.........................     ...............................
"The powers above us
show that you love us          
Don't take me away..."


e--0--------------------------------|
b--2-------------------------4-4----|
g--1-----------------------4-4-4----|
d--2--2-2-2-2-2-2--4-4-4-4-4-4-4----|
a--0--0-0-0-0-0-0--2-2-2-2-2-2-2----|
e-----------------------------------|
      pm..................
"The powers above us,
show that you love us"




Chorus:

e--0--0--0--0--0--0--0--0----2--2-2--2----4--4--4--4--4--4--4-----|
b--0--0--0--0--0--0--0--0----5--4-4--4----5--5--5--5--5--5--5-----|
g--1--1--1--1--1--1--1--1----4--4-4--4----6--6--6--6--6--6--6-----|
d--2--2--2--2--2--2--2--2----4--4-4--4----6--6--6--6--6--6--6-----|
a--2--2--2--2--2--2--2--2----2--2-2--2----4--4--4--4--4--4--4-----|
e--0--0--0--0--0--0--0--0--------------------------------------0--|
"In the end it's just another day             
and there's no explanation or a..."

 
e--5--5--5--5--5--5--5---4--x--x--4---4-----2--x--x--2----2----|
b--5--5--5--5--5--5--5---5--x--x--5---5-----2--x--x--2----2----|
g--5--5--5--5--5--5--5---6--x--x--6---6-----3--x--x--3----3----|
d--7--7--7--7--7--7--7---6--x--x--6---6-----4--x--x--4----4----|
a--7--7--7--7--7--7--7---4--x--x--4---4-----4--x--x--4----4----|
e--5--5--5--5--5--5--5-------------------0--2--x--x--2----2----|
"plan that you can         
make, make"

  
e--5--5--5--5--5--5--5--5--|
b--5--5--5--5--5--5--5--5--|
g--5--5--5--5--5--5--5--5--|
d--7--7--7--7--7--7--7--7--|
a--7--7--7--7--7--7--7--7--|
e--5--5--5--5--5--5--5--5--|
"And you can't hide a-way"



Verse

Post Verse

Pre Chorus

Chorus



Solo: 

Rythm
G, D, Em, Cm
Em, A, Cm,
Em, A, Cm,
G

Lead
e--------------------------------------------------|
b--15--15--15--15--15--13--12----------------------|
g--12--12--12--12--12--12--12--14--12---11-11------|
d--12--12--12--12--12--12--12--12--12---12-12------|
a--------------------------------------------------|
e--------------------------------------------------|


e---------------------------------------------|
b--------8--7h8p7-----8-----8--10--11--10--8--|
g--9\----7--7-----9-7/8-----8--8---8---8---8--|
d--9\-------------------10--------------------|
a--7\-----------------------------------------|
e--0------------------------------------------|


e---------------------------9\----5--5----|
b--------8\---5--5----------10\---5--5----|
g--------7\---4--4------------------------|
d--------------------5/7~-----------------|
a--7~-------------------------------------|
e-----------------------------------------|


e------------------9--11--12----------------------------|
b--8---10--11--8---x---x---x--------------8-------------|
g--8---8---8---8---6---x---x-----------------9~---------|
d--10--10--10--10-----10---9---13-----------------------|
a------------------------------13----7~------------4h2--|
e-------------------------------------------------------|


e-------------------------------------------------|
b----------2---------------------8--10^v-8--------|
g----------2----2--2h4-2----5/8--------------5/7--|
d----------2----2---------------------------------|
a--0--2/4-----------------------------------------|
e-------------------------------------------------|


e--7-------------------------------------------------3--/5--|
b----8h10p7-8-------0-----------------------------0--3------|
g-------------9-7\5---2p0----------------------0------------|
d-------------------------4-2p0----------0h-2---------------|
a-------------------------------3p2-------------------------|
e-------------------------------------3---------------------|



Bridge
                                
e--0----------------0----|
b--2----------------0----|
g--1----------------1----|
d--2----------------2----|
a--0----------------2----|
e-------------------0----|
"the powers above us...                  
Show that you love us"

  
e--0----------------------------0--------------------|
b--2----------------------------0--------------------|
g--1----------------------------1------------2p1-----|
d--2--------6\-4/-9\---6\--4----2----------------2~--|
a--0----------------------------2--------------------|
e-------------------------------0--------------------|
"the powers above us...                       
Show that you love us..."




Pre-Chorus
  
e--0-------------------------------0-----------------------------------|
b--2-------------------------------0-----------------------------------|
g--1-------------------------------1-----------------------------------|
d--2--2-2-2-2-2-2-2-2-2-2-2-2-2-2--2-----------------------------------|
a--0--0-0-0-0-0-0-0-0-0-0-0-0-0-0--2--2-2-2-2-2-2-2-2-2-2-2-2-2-2-2-2--|
e----------------------------------0--0-0-0-0-0-0-0-0-0-0-0-0-0-0-0-0--|
      pm.........................     ...............................
"The powers above us
show that you love us          
Don't take me away..."


e--0--------------------------------|
b--2-------------------------4-4----|
g--1-----------------------4-4-4----|
d--2--2-2-2-2-2-2--4-4-4-4-4-4-4----|
a--0--0-0-0-0-0-0--2-2-2-2-2-2-2----|
e-----------------------------------|
      pm..................
"The powers above us,
show that you love us"

  Am
--0--0--0--0--0--0--0--0--0--0--0--0--0----|
--1--1--1--1--1--1--1--1--1--1--1--1--1----|
--2--2--2--2--2--2--2--2--2--2--2--2--2----|
--2--2--2--2--2--2--2--2--2--2--2--2--2----|
--0--0--0--0--0--0--0--0--0--0--0--0--0----|
-------------------------------------------|
"show that you love us!


Chorus


Outro:

e-------7---7--4----4--4----|
b--9----7---7--5----4--4----|
g--9----8---8--6----4--4----|
d--9--x-9---9--6--x-6--6----| x4
a--7--x-9---9--4--x-6--6----|
e-----x-7---7-----x-4--4----|
"The powers above us, 
show that you love us
Don't take me away"

e-------7---7--4----4----|
b--9----7---7--5----4----|
g--9----8---8--6----4----|
d--9--x-9---9--6--x-6----| 
a--7--x-9---9--4--x-6----|
e-----x-7---7-----x-4----|
"Don't take me away."



I couldn't find:
Maitland Street
Putting You Down
Short Notice
So What
Rising Up From The Ashes

sorry...


-----------------
song #13: hold up
-----------------
tabbed by 5ironaudiorage


Intro:

e-------------------------------------------------------------------------------------|
b-------------------------------------------------------------------------------------|
g-0-(let ring)-----12p0---0-11p0---0-10p0---0-9p0---0-8p0---0-7p0---0-6p0---0-5p0-----|
d--------------5/-------9--------8--------7-------6-------5-------4-------3-------3\--|
a-------------------------------------------------------------------------------------|
e-------------------------------------------------------------------------------------|



Verse 1:

e--------------------------------------------------------|
b--------------------------------------------------------|
g---------7------8-------------------7------8------------|
d--5--x-x-7--x-x-8------3--4--5--x-x-7--x-x-8------3--4--| Repeat as
a--5--x-x-5--x-x-6--x-x-3--4--5--x-x-5--x-x-6--x-x-3--4--| needed
e--3----------------x-x-1--2--3----------------x-x-1--2--|
"Put it in the  bag  boys said the petty thief,
I'm only gonna say it once so don't play dumb with me.
Don't nobody make a move and don't nobody speak,
Everybody on the floor don't mess around with me"



Chorus:

e----3--3---3--3-----3--3---3--3--|
b----4--4---4--4-----3--3---3--3--|
g--5-5--5-5-5--5-----3--3---3--3--|
d--5-5--5-5-5--5---5-5--5-5-5--5--|
a--3-3--3-3-3--3---5-5--5-5-5--5--|
e------------------3-3--3-3-3--3--|
"Put it in the bag boys  
then we're on our way"


e----3--3---3--3---3----|
b----4--4---4--4---3----|
g--5-5--5-5-5--5---3----|
d--5-5--5-5-5--5---5----|
a--3-3--3-3-3--3---5----|
e------------------3----|
"All the money in the bag 
we'll count it up another day"


e----3--3---3--3-----3--3---3--3--|
b----4--4---4--4-----3--3---3--3--|
g--5-5--5-5-5--5-----3--3---3--3--|
d--5-5--5-5-5--5---5-5--5-5-5--5--|
a--3-3--3-3-3--3---5-5--5-5-5--5--|
e------------------3-3--3-3-3--3--|
"Put it in the bag boys  
then we're on our way"

  
e----0--0---0--0---2-2--2-2-2--2-2----|
b----2--2---2--2---3-3--3-3-3--3-3----|
g--2-2--2-2-2--2---2-2--2-2-2--2-2----|
d--2-2--2-2-2--2---0-0--0-0-0--0-0----|
a--0-0--0-0-2--0----------------------|
e-------------------------------------|
But don't go making me mad,
put the money in the bag"



Pre Verse: Same as Verse 1


Verse 2:

e-------------------------------------------------------------|
b-------------------------------------------------------------|
g---------7------8------10--------------7------8------10------|
d--5--x-x-7--x-x-8--x-x-10-------5--x-x-7--x-x-8--x-x-10------|
a--5--x-x-5--x-x-6--x-x-8---x-x--5--x-x-5--x-x-6--x-x-8---x-x-|
e--3------------------------x-x--3------------------------x-x-|
   pm........................................................
"We've gone and made it this far, and we can't run away,
If we make it out alive to see another day, oh then
We'll leg it to the border sneak on past the toll
There ain't no copper gonna put me in the hole


Chorus:

e----3--3---3--3-----3--3---3--3--|
b----4--4---4--4-----3--3---3--3--|
g--5-5--5-5-5--5-----3--3---3--3--|
d--5-5--5-5-5--5---5-5--5-5-5--5--|
a--3-3--3-3-3--3---5-5--5-5-5--5--|
e------------------3-3--3-3-3--3--|
"Put it in the bag boys  
then we're on our way"


e----3--3---3--3---3----|
b----4--4---4--4---3----|
g--5-5--5-5-5--5---3----|
d--5-5--5-5-5--5---5----|
a--3-3--3-3-3--3---5----|
e------------------3----|
"All the money in the bag 
we'll count it up another day"


e----3--3---3--3-----3--3---3--3--|
b----4--4---4--4-----3--3---3--3--|
g--5-5--5-5-5--5-----3--3---3--3--|
d--5-5--5-5-5--5---5-5--5-5-5--5--|
a--3-3--3-3-3--3---5-5--5-5-5--5--|
e------------------3-3--3-3-3--3--|
"Put it in the bag boys  
then we're on our way"

  
e----0--0---0--0---2-2--2-2-2--2-2-----------|
b----2--2---2--2---3-3--3-3-3--3-3-----------|
g--2-2--2-2-2--2---2-2--2-2-2--2-2----2^v-3--|
d--2-2--2-2-2--2---0-0--0-0-0--0-0-----------|
a--0-0--0-0-2--0-----------------------------|
e--------------------------------------------|
But don't go making me mad,
put the money in the bag"



Pre Solo:

e--3-----------------------------------------------------|
b--3-----------------------------------------------------|
g--4------7------8-------------------7------8------------|
d--5--x-x-7--x-x-8------3--4--5--x-x-7--x-x-8------3--4--| x2
a--5--x-x-5--x-x-6--x-x-3--4--5--x-x-5--x-x-6--x-x-3--4--| 
e--3----------------x-x-1--2--3----------------x-x-1--2--|



Solo:

e--------------------------------------------------------------------|
b--------------------------------------------------------------------|
g--------------------------------------------------------------------|
d-x-x-x-x-x-x-x-x-x-x-x-x-x-x-x-x------------------------------------|
a-x-x-x-x-x-x-x-x-x-x-x-x-x-x-x-x------------------------------------|
e-3-3-3-3-3-3-3-3-3-3-3-3-3-3-3-3--3-3-3-3-3-3-3-3-3-3-3-3/5/6/8/10--|
  pm.............................


e-----------------------------------------------------------15------|
b--------------------------------------------------------15----15---|
g--------------------------------------------10-12-14/15------------|
d--5-5-5-5-7-7-7-7-8-8-8-8-10-10-10-10-10/12------------------------|
a-------------------------------------------------------------------|
e-------------------------------------------------------------------|


e----------------------------------------------------------------------------------|
b--8----8----8----10---11-----13-----15--15---15---15---15---15---15---15----------|
g--10^^-10^^-10^^-12^^-13^^---15^^---17^-17^^-17^^-17^^-17^^-17^^-17^^-17^^--------|
d----------------------------------------------------------------------------------|
a-----------------------------------------------------------------------------14\--|
e-----------------------------------------------------------------------------14\--|


e--------------3----------------3-----------------------------------------------------|
b--4---4---4-----4--3---3---3-----3--1---1---1---1------------------------------------|
g----5---5---5--------3---3---3--------0---0---0-----3p0-0-0-3p0-0-0-3p0-0-0-3p0-0-0--|
d-------------------------------------------------------------------------------------|
a-------------------------------------------------------------------------------------|
e-------------------------------------------------------------------------------------|


e------------------------------------------------------------------------------|
b-----------------4--3/----------------------------------8-----2----5----8-----|
g-----------3--2---------10^^--12-12-12-12--10^^--12-12--10^^--4^^--7^^--10^^--|
d-----1--0---------------------------------------------------------------------|
a--3---------------------------------------------------------------------------|
e------------------------------------------------------------------------------|


e-------------------------------------------11----------11--------14----------14-----------15--|
b----------7-7-7-7-10-10-10-10-13-13-13-13-----13p10h13----13p10/----16p13h16----16--------15--|
g--7-7-7-7--------------------------------------------------------------------------14/15--15--|
d----------------------------------------------------------------------------------------------|
a----------------------------------------------------------------------------------------------|
e----------------------------------------------------------------------------------------------|



Bridge:

e--17^v~--|-------------------------------------3--3--|
b---------|-------------------------------------3--3--|
g---------|-------------------------------------3--3--|
d---------|--5------5---5---5---5---------------5--5--|
a---------|--5------5---5---5---5--5-5-5-5-5-5--5--5--|
e---------|--3------3---3---3---3--3-3-3-3-3-3--3--3--|
                                   pm.........
"We're almost at the end there's an open road ahead, 
freedom's just another 30 miles away.
But luck came undone, as we jumped the gun   
now, all, we can do is run


Chorus


Outro:

e--------------------------------------------------------|
b--------------------------------------------------------|
g---------7------8-------------------7------8------------|
d--5--x-x-7--x-x-8------3--4--5--x-x-7--x-x-8------3--4--| x2
a--5--x-x-5--x-x-6--x-x-3--4--5--x-x-5--x-x-6--x-x-3--4--| 
e--3----------------x-x-1--2--3----------------x-x-1--2--|

e---------------------------------------------------------------------3~W
b---------------------------------------------------------------------3~H
g--12p0---0-11p0---0-10p0---0-9p0---0-8p0---0-7p0---0-6p0---0-5p0-----3~A
d-------9--------8--------7-------6-------5-------4-------3-------3\--5~M
a---------------------------------------------------------------------5~M
e---------------------------------------------------------------------3~Y



------------------
song #14: the room
------------------
tabbed by steven-segal


Intro:

e----------------------------------------------------------------|
b-5-5-5-5-5-5-5-5-5-5-5-5-5-5-5/-6-6-6-6-6-6-6-6-6-6-6-6-6-6-6---|
g-6-6-6-6-6-6-6-6-6-6-6-6-6-6-6\-5-5-5-5-5-5-5-5-5-5-5-5-5-5-5/--|
d----------------------------------------------------------------| Repeat
a----------------------------------------------------------------| as needed
e----------------------------------------------------------------|
"In a room you can build a home,
plant the seed, and life begins to grow.
When it's outgrown life inside,
How will it live, and will it survive?
On it's own outside?"

Verse 1:
                    
e---------------------------------------------------------------------------------|
b--5--------5----5-----------------------------5--------5----5---5--------5----5--|
g--5--------5----5----10-----------10-----10---5--------5----5---5--------5----5--|
d--5--5-5-5-5--5-5----10--10-10-10-10--10-10---5--5-5-5-5--5-5---5--5-5-5-5--5-5--|
a--3--3-3-3-3--3-3----8---8--8--8--8---8--8----3--3-3-3-3--3-3---3--3-3-3-3--3-3--|
e--------------------------------------------------------------3------------------|
                                                                
e---------------------------------------------------------------3--------3--------|
b--5--------5----5-----------------------------5--------5----5--3--------3--------|
g--5--------5----5----10-----------10-----10---5--------5----5--4--------4--------|
d--5--5-5-5-5--5-5----10--10-10-10-10--10-10---5--5-5-5-5--5-5--5--5-5-5-5--5-5---|
a--3--3-3-3-3--3-3----8---8--8--8--8---8--8----3--3-3-3-3--3-3--5--5-5-5-5--5-5---|
e---------------------------------------------------------------3--3-3-3-3--3-3---|
I wonder if the world is just the same."

e---------------------------------------------------------------3--------3--------|
b--5--------5----5-----------------------------5--------5----5--3--------3--------|
g--5--------5----5----10-----------10-----10---5--------5----5--4--------4--------|
d--5--5-5-5-5--5-5----10--10-10-10-10--10-10---5--5-5-5-5--5-5--5--5-5-5-5--5-5---|
a--3--3-3-3-3--3-3----8---8--8--8--8---8--8----3--3-3-3-3--3-3--5--5-5-5-5--5-5---|
e---------------------------------------------------------------3--3-3-3-3--3-3---|
"And does the life that I knew still remain."


Post Verse:   

   
e-------------0--------------|--10----------------10---------------|
b---------1-1----------------|--10--10-----10----------10----------|
g--2--2-2--------------------|--9------9------9-------------9-9----|
d--2-------------3----3--(x2)|--8--------8------8----8----8-----8--| x2
a--0-------------3--3--------|-------------------------------------|
e----------------1-----------|-------------------------------------|
Journey to the life outside,
return to those I left behind."


e---------------|----------------------------|
b--5----5-------|--------------1-------------|
g--5-------5----|----------1-1------5--------|
d--5---------5--|------3-3----------5--(x2)--|
a--3---3--------|-----------------5-3--------|
e---------------|--1-1------------3----------|
"Behind. Cause I'm ready to go now.
Yes I'm ready to go now."

                      
e-----------------------------------------------|
b-----------------------------------------------|
g-----------------------------------------------|
d----------------------------------10--\--5--\--|
a--7-7-7-7-7-7-7-7--7-7-7-7-7-7-7--10--\--5--\--|
e--5-5-5-5-5-5-5-5--4-4-4-4-4-4-4--8---\--3--\--|
   pm............................
"I wanna get back to the city,
get on with my life,
'cause I've done my time."


e----------------------------------------------------8--|
b--------------------------1-----1-3-5-6-8-8/9\8-6-5-x--|
g--------------------0-1-3---1-3---------------------5--|
d--------0-2---0-2-3------------------------------------|
a--0-2-3-----3------------------------------------------|
e-------------------------------------------------------|


e--------------------------|-----------------|--------------------------|
b--------------------------|-----------------|--------------------------|
g--5----------5----5-------|-7--------7----7-|-5----------5----5--------|
d--5----------5----5--(x2)-|-7--------7----7-|-5----------5----5--(x4)--|
a--3--3-3-3-3-3--3-3-------|-5--5-5-5-5--5-5-|-3--3-3-3-3-3--3-3--------|
e--------------------------|-----------------|--------------------------|
      pm.....    . 
"And I'm ready to go now."


e-----------------------------------------|-----|
b-----------------------------------------|-----|
g-----------------------------------------|--2--|
d------6-----6-----3-----2----------(x2)--|--2--|
a----7-----5-----2-------------2----------|--0--|
e--0-----0-----0-----0-4---0-4---4--------|-----|


e----------------------|-------------------------------|-----------------|
b----1-1--0-0--1-------|-------1-1--0-0--1-------------|--------------1--|
g----2-2--2-2--2-------|----2--2-2--2-2--2--2--2-------|------------2----|
d----2-2--2-2--2--(x2)-|--2-2--2-2--2-2--2--2--2--(x2)-|------0-1-4------|
a--0-0-0--0-0--0-------|--2-0--0-0--0-0--0--0--0-------|--0-3------------|
e----------------------|--0----------------------------|-----------------|


Verse 2: Mostly upstrokes

e---0--0--0--0--0--0--0--0--0--0--0--0--0--0--0--0----|
b---1--1--1--1--1--1--1--1--0--0--0--0--0--0--0--0----|
g-2-2--2--2--2--2--2--2--2--1--1--1--1--1--1--1--1----|
d-2-2--2--2--2--2--2--2--2--2--2--2--2--2--2--2--2----|
a-0---------------------------------------------------|
e-----------------------------------------------------|
"So now it's time to leave the room,
and not for one minute too soon."

e--1--1--1--1--0--0--0--0--0--0--0--0-0----0-1-/4-1-0----|
b--1--1--1--1--1--1--1--1--0--0--0--0-0--0------------0--|
g--2--2--2--2--2--2--2--2--1--1--1--1-1--1---------------|
d--3--3--3--3--2--2--2--2--2--2--2--2-2------------------|
a--------------------------------------------------------|
e--------------------------------------------------------|
"If you'd spent sixteen years,
then you'd almost understand."

e---0--0--0--0--0--0--0--0--0--0--0--0--0--0--0--0----|
b---1--1--1--1--1--1--1--1--0--0--0--0--0--0--0--0----|
g-2-2--2--2--2--2--2--2--2--1--1--1--1--1--1--1--1----|
d-2-2--2--2--2--2--2--2--2--2--2--2--2--2--2--2--2----|
a-0---------------------------------------------------|
e-----------------------------------------------------|
"That time waits for no man to return,
a whole new set of rules to learn."

e--1--1--1--1--0--0--0--0--0--0--0--0-0----0-1-/4-1-0----|
b--1--1--1--1--1--1--1--1--0--0--0--0-0--0------------0--|
g--2--2--2--2--2--2--2--2--1--1--1--1-1--1---------------|
d--3--3--3--3--2--2--2--2--2--2--2--2-2------------------|
a--------------------------------------------------------|
e--------------------------------------------------------|
"It had been sixteen years,
since they put me in the cell, put me in the cell."


Chorus:

e--------------------------------------------------------------------|
b--6-6-6-6-5-5-5-5-6-6-6-6-6-6-6-6-----------------------------------|
g--7-7-7-7-5-5-5-5-7-7-7-7-7-7-7-7--7-7-7-7-7-7-7-7-7-7-7-7-7-7-7-7--|
d--7-7-7-7-5-5-5-5-7-7-7-7-7-7-7-7--8-8-8-8-8-8-8-8-8-8-8-8-8-8-8-8--|
a--5-5-5-5-5-5-5-5-5-5-5-5-5-5-5-5--8-8-8-8-8-8-8-8-8-8-8-8-8-8-8-8--|
e-----------------------------------6-6-6-6-6-6-6-6-6-6-6-6-6-6-6-6--|
"We will never leave, 
we ain't ever gonna leave the Room."

e----------------------------------------------------------------------|
b--6-6-6-6-5-5-5-5-6-6-6-6-6-6-6-6-------------------------------------|
g--7-7-7-7-5-5-5-5-7-7-7-7-7-7-7-7----------------------------5-5-5-5--|
d--7-7-7-7-5-5-5-5-7-7-7-7-7-7-7-7--8-8-8-8-8-8-8-8--3-3-3-3--5-5-5-5--|
a--5-5-5-5-5-5-5-5-5-5-5-5-5-5-5-5--8-8-8-8-8-8-8-8--3-3-3-3--3-3-3-3--|
e-----------------------------------6-6-6-6-6-6-6-6--1-1-1-1-----------|
"We could be here for life,
We will never leave the Room."


Post Chorus:

e---------------------------------------------------------|
b----6-6--5-5--6------------6-6--5-5-------------------1--|
g----7-7--5-5--7--7--7------7-7--5-5--7--------------2----|
d----7-7--5-5--7--7--7------7-7--5-5--7--------0-1-4------|
a--5-5-5--5-5--5--5--5----5-5-5--5-5--5----0-3------------|
e---------------------------------------------------------|


Verse 3:

e---0--0--0--0--0--0--0--0--0--0--0--0--0--0--0--0----|
b---1--1--1--1--1--1--1--1--0--0--0--0--0--0--0--0----|
g-2-2--2--2--2--2--2--2--2--1--1--1--1--1--1--1--1----|
d-2-2--2--2--2--2--2--2--2--2--2--2--2--2--2--2--2----|
a-0---------------------------------------------------|
e-----------------------------------------------------|
"And as it all gets re-arranged,
You find that everything has changed. "

e--1--1--1--1--0--0--0--0--0--0--0--0-0----0-1-/4-1-0----|
b--1--1--1--1--1--1--1--1--0--0--0--0-0--0------------0--|
g--2--2--2--2--2--2--2--2--1--1--1--1-1--1---------------|
d--3--3--3--3--2--2--2--2--2--2--2--2-2------------------|
a--------------------------------------------------------|
e--------------------------------------------------------|
"And there's no place for you,
in this foriegn world."

(In this next bit, there's a second guitar in the backround)

Guitar 1
e----------0---0---------|----------0---0----------|----------1---1-----------0---0---|
b------1-----1---1-------|------------0---0--------|------1-----1---1-----1-----1--1--|
g--------2---------------|------1------------------|----2---2---------------2---------|
d-------------------(x2)-|----2---2----------(x2)--|--3-------------------------------|
a--0-0-------------------|-------------------------|------------------0-0-------------|
e------------------------|--0----------------------|----------------------------------|
   pm........................................................................

e----------0---0----1-/4-1-0----|
b------------0----0----------0--|
g------1----------1-------------|
d----2---2----------------------|
a-------------------------------|
e--0----------------------------|
   pm...........


Guitar 2
e---------------------------------------------------|
b---------------------------------------------------|
g---------------------------------------------------|
d---------------------------------------------------|
a--3~----0--3--2~------0-2-3-/5~--0--3~--0--2-------|
e--------------------0-------------------------0----|
"You always believed, 
one day we'd be free,
and never return so soon, 
to what was left inside the room."


Chorus

Post Chorus

Bridge:

Guitar 1
e-----------------------------------------------------|
b-----------------------------------------------------|
g-----------------------------------------------------|
d--2-3--2----2-3--2----2-3--2-------------------------| x3 
a--2-3--2----2-3--2----2-3--2--2-2-2-2-2-2-2-2-2-2-2--|
e--0-1--0----0-1--0----0-1--0--0-0-0-0-0-0-0-0-0-0-0--|
                               pm...................

e---------------------------------------------------------------|
b---------------------------------------------------------------|
g------------------------------------------------------------7--|
d--2-3--2----2-3--2----2-3--2--9--10--12--10-9-10-9-7--6--4--7--|  
a--2-3--2----2-3--2----2-3--2--x--x---x---x--x-x--x-x--x--x--5--|
e--0-1--0----0-1--0----0-1--0--7--8---10--8--7-8--7-5--4--2-----|


Guitar 2
e---------------------------------------------|
b--12---13----12--13--15--13-12-13-12-10-9----|
g--x----x-----x---x---x---x--x--x--x--x--x----|
d--9----10----9---10--12--10-9--10-9--7--6----| x3
a---------------------------------------------|
e---------------------------------------------|

e--------------------------------------------------------------------------|
b--12---13----12--13--15--13-12-13-12--10--9--7--3--3-3-3-3-3-3-3-3--------|
g--x----x-----x---x---x---x--x--x--x---x---x--x--2--2-2-2-2-2-2-2-2--------|
d--9----10----9---10--12--10-9--10-9---7---6--4--0--0-0-0-0-0-0-0-0-(etc)--| 
a--------------------------------------------------------------------------|
e--------------------------------------------------------------------------|


Bridge Continued (Acoustic bit):

e-------------------0-----0-----0---------------------------------|
b--5-----5-----5--------------------------------------------------|
g----5-----5----------2-----2-----2--2-----2-----2---2-----2---2--|
d--3---3-----3---3--0---0-----0--------2-----2-----2---2-----2----| x4
a------------------------------------0---0-0---0-0---0---0-0---0--|
e-----------------------------------------------------------------|
"And if I lent my arms to you,
would you hold me and emrace me?
Or replace me?

e-------------------------------------------|-------------------------------------|
b-------------------------------------------|-------------------------------------|
g----2-------2-----2----2-----2-----2-------|----2-------2----2----2-----2-----0--|
d------3-------3----------2-----2------(x6)-|------3-------3---------3-----3------|
a--------3------------0-----0-----0---------|--------3-----------1-----1-----1----|
e--1-------1-----1--------------------------|--1-------1-----1--------------------|

e---------------------------------|
b-----------------1--1-1--1-------|
g----2-----2------0--0-2--0-------|
d------3-----3----2--2-2--2--\----|
a--0-----0-----0--3--3-3--3--\----|
e----------------------------\----|


Solo:

Rythem (F is always played from the 8th fret)

F, Dm, F, Dm,
F, Bb, Dm, C,  x2
Dm, C, A

Lead
e--------------8--8~---6-5---5--------------13--13-----------------------------------|
b-------------/10-10~--8-6h8-6----13-13-13--13-/15-13--------------------------------|
g----------10-----------------------------------------12h14p12-----------------------|
d-----8h10-----------------------------------------------------15-12-----------------|
a--/8------------------------------------------------------------------10-12p10h12~--|
e------------------------------------------------------------------------------------|

e---1----------1p0------------5^--5--------------|
b---1------1h3-----1h3p1----------6--8-10--8~----|
g---2--0h2---------------3--x--------9-10--------|
d-3-3--------------------------------------------|
a-3-3--------------------------------------------|
e-1-1--------------------------------------------|

e------------------------------------------------------------/17~----|
b--------10-------11-------13-15p13----------------------------------|
g--10h12----10h12----10/12----------15p14p12-14p12-10h12-14----------|
d--------------------------------------------------------------------|
a--------------------------------------------------------------------|
e--------------------------------------------------------------------|

e--5--------------------------------3--5----------------------|
b--6^-------------------------------6--6----------------------|
g--------5-7--9--10--10/12\10-9-10--------7--5--7----7--9--9--|
d--------x-x--x--x---x--x--x--x-x---------8----------x--x--x--|
a--------3-5--7--8---8/-10\8--7-8---------8----------5--7--7--|
e-----------------------------------------6-------------------|


Post Solo:

e--------------------------------|---------------------|
b-----6-6--5-5--6--5--5--5-------|------6-6--5-5--6----|
g-----7-7--5-5--7--7--5--7-------|------7-7--5-5--7----|
d---7-7-7--5-5--7--7--5--7--(x3)-|----7-7-7--5-5--7----|
a-7-5-5-5--5-5--5--5--5--5-------|--7-5-5-5--5-5--5----|
e-5------------------------------|--5------------------|


Chorus

Outro: Just keep playing the Chorus until the song fades out. 
       There's a guitar playing a solo in the backround too. 

e---5-5-------5-5------5--5------5---------------------------------|
b---6-6^v-----6-6^-----6^-6^v-----6^-------------------------------|
g---------7~-------7~---------7~-----7~----7^v-5-7^--7^^v-5-7p5----|
d---------------------------------------------------------------5--|
a------------------------------------------------------------------|
e-5----------------------------------------------------------------|

e-10-10-10-10-10-10-10-----------------------|
b-11-11-11-11-11-11-11-11p10-----------------|
g----------------------------12p10----10h12--|
d----------------------------------12--------|
a--------------------------------------------|
e--------------------------------------------|

e---------------------------------------------------------------------------------------------|
b-14^--14^v----------------14-14^-------------------------------------------------------------|
g-----------14h12-------12---------14p12-------------14-12~-----------------------------------|
d-----------------15p12------------------15p14p12-15--------14h15p14-12-14p12-----------------|
a-----------------------------------------------------------------------------15p12-12h13p12--|
e---------------------------------------------------------------------------------------------|

e-------------------------------------13~--17^--17~--15~--12\--12/13\12----12b----/10~--|
b-----------------10~--11~--13~--15~------------------------------------12-----12-------|
g-/7--9--10~-12~------------------------------------------------------------------------|
d---------------------------------------------------------------------------------------|
a---------------------------------------------------------------------------------------|
e---------------------------------------------------------------------------------------|

e--8~-----------------------------------|
b------10b-8---10p8----10p8----8--------|
g------------7------10------10---10p7~--|
d---------------------------------------|
a---------------------------------------|
e---------------------------------------|

e--------------------------------------------------------------------------------|
b-6-5~----6-5~---6-5~---6-5~---6-5~---6-5~---5-6~--8^^-8^^v-8^^v-8^^v-8^^v-6-----|
g-------7------7------7------7------7------7---------------------------------7~--|
d--------------------------------------------------------------------------------|
a--------------------------------------------------------------------------------|
e--------------------------------------------------------------------------------|


thanks to all the contributers...
2 comments total.
0 reply
repsac_hoppus wrote on December 2 2005, 02:43 am

i think this tabis very sexy

0 reply
Baza14 wrote on December 26 2005, 08:54 pm

but i also think the tabber is homo

I want to post or [tab]
guest
You may want to rate the tab now too:
select rating
Please do not post tabs as comments. Select "correction" instead!