Oops, an error
Loading. Please wait.

Roll On Tab

ver1
ver1

Album

Solo

Whole song

Interactive

More versions @911Tabs.com
2,738 views 1 this week
4 commentsread comments
1 2 3 4 5
worth learning
x 6
Autoscroll
+/-
esc
set tempo
stop
Hey! There's an official Ultimate Guitar app which is ideal
for learning songs when you're away from computer. Get the app
WARNING: You are trying to view
                                    content from Ultimate-Guitar.com
                                    in an unauthorized application,
                                    which is prohibited.

                                    Please use an official Ultimate
                                    Guitar Tabs application for iPhone,
                                    iPad or Android to access legitimate
                                    chords, guitar, bass, and drum tabs
                                    from Ultimate-Guitar.com database.

                                    Type "ultimate guitar tabs" in Apple
                                    App Store's or Android Market's
                                    search to find the application.
  The living end - Roll on
  tabbed by tom kelly

here is the whole album Roll On by the living end. its taken me a while becuase i'm in the 
middle of year 11 but its done now. 
all the chords used are bar chords. i haven't written whether they are minors or majors most of the time 
because i mostly used major5 chords. i tried to put them into the right timing roughly but you'll need to 
listen to the cd to get exact timings. the song roll on wasn't tabbed by me but i've put it in just to make 
it the complete album. although its not the whole album. i didn't manage to tab revolution regained. but 13 
out of 14 aint bad!!

key/legend 
~ = vibrado
s = slide 
h = hammer on 
p = pull off 
b = bend up      (so br is bend up and down) 
r = release bend 
(7) = a number in brackets next to a chord means it is play at that fret number. eg E(7) is played at fret 
seven on the fifth string. instead of fret 0 on the sixth. 
 
 
                       -THE LIVING END-
                           Roll On
                     Tabbed By Mick Fryar
                     manumick20@yahoo.com 


Hey, You will find that this trnascription is note perfect so dont worry
it`s all here. For any other guitar tab for any The Living End song just visit
www.thelivingend.com.au/interact/tabs or at www.thelivingend.org, both sets of my
tabs there my be different becuase at one site one tab is updated and at the other 
site the tab my not so visit both of my archives and find the best quality tab if you find
one tab and dont like the way Ive set it out.
Enjoy!, Mick


===============================================================================================

^=bend
~=vibrado
^^=full bend up and bring back down
p=pull off
h=hammer on
s=slide



Intro:
  
e--------------------------------------|
b--------------------------------------|
g-----6-6-9-----6-6-9-repeat as needed-|
d-7-7-7-7-7-7-7-7-7-7------------------|
a-0-0-0-0-0-0-0-0-0-0------------------|
e--------------------------------------|



Chorus:
  C      F      C       F     
e---------------------------|
b---------------------------|
g-5-5-5---------5-5-5-------|
d-5-5-5--3-3-3--5-5-5--3-3--|
a-3-3-3--3-3-3--3-3-3--3-3--|
e--------1-1-1---------1-1--|

  C        G    Am         F  G
e----------3-3-------------1--3--|
b----------0-0--1-1--------1--0--|
g-5-5-5-5--0-0--2-2--------2--0--|
d-5-5-5-5--x-x--2-2--------3--x--|(x2 from start
a-3-3-3-3--2-2--0-0-----------2--|  of chorus)
e----------3-3------3-0-------3--|


IntroA


Verse:

  A                        C       D
e---------------------------------2--2-2--|
b---------------------------------3--3-3--|
g-----2-2-2-2-----2-2-2---5--5-5--2--2-2--|
d-----2-2-2-2-----2-2-2---5--5-5--0--0-0--|
a-3-0-0-0-0-0-----0-0-0---3--3-3----------|
e-------------3-0-------------------------|

   A    
e--------------|                   
b--------------|
g-----2-2-2-2--|
d-----2-2-2-2--|(x2)
a-3-0-0-0-0-0--|
e--------------|

Chorus

Intro

Verse


Solo:


   Em       (Em Pentaonic scale)
e--7---------------------------------------------|
b--8---------------------------------------------|
g-----9-9~-------7h9p7---7-----------------------|
d------------7h9-------9----9-8-7-5---7-5h6------|
a-----------------------------------7-------7----|
e---------------------------------------------0--|

  F     (Fmaj Arpeggio)
e--------------------------------------|
b--------------------------6-----------|
g------------------5-5-5-5-5------5-7--|
d----------7-7-7-7--------------7------|
a--8-8-8-8-----------------------------|
e--------------------------------------|

  A    (Am Pentatonic Scale)
e------5-----------------------------------|
b--------8-5---8-5-----5-------------------|
g--7^--------7-----7-5---7-5---7-5---------|
d----------------------------7-----7-5-7~--|
a------------------------------------------|
e------------------------------------------|

  F     (Triad-(notes of F,C,F,A))
e---------------------------------------|
b---8-10-10-10--8-10-10--8-11-10--8-10--|
g--10-10-10-10-10-10-10-10-10-10-10-10--|
d---------------------------------------|
a---------------------------------------|
e---------------------------------------|

  E   
e------15-------------------------------|
b--15^----15^^-12-15^--15^-15^-15^-15^--|
g---------------------------------------|
d---------------------------------------|
a---------------------------------------|
e---------------------------------------|



Last Verse:

  A        C   D   A          
e---------------------|
b---------------------|
g-2----2---5---7---2--|
d-2----2---5---7---2--|
a-0----0---3---5---0--|
e---------------------|


  A        C    D     A             A7
e-----------------------------------0--|
b-----------------------------------2--|
g-2---2---5-5--7-7--2-2-2-2-2-2-2---0--|
d-2---2---5-5--7-7--2-2-2-2-2-2-2---2--|
a-0---0---3-3--5-5--0-0-0-0-0-0-0-0-0--|
e--------------------------------------|



Bridge:

e------------------------------|
b------------------------------|
g-----------pause--(bass plays)|
d------------------------------|
a------------------------------|
e------------------------------|
 

e---------------------------------------|
b---------------------------------------|
g---------------------------------------|
d---------------------------------------|There is an
a---------------------------------------|easier way to 
e--3-3-3-3-3-3-3-3-6-6-6-6-8-8-8-8-(x2)-|play it but 
                                thats how Chris plays it.

   G  A        G
e-----------------|
b-----------------|
g-----2-2-2-2-----|
d--5--2-2-2-2--5--|
a--5--0-0-0-0--5--|
e--3-----------3--|

      C  F        C  F         C      F G
e------------------------------------------|
b------------------------------------------|
g-x-x-5-------x-x-5------------5-5-5-------|
d-x-x-5--3-3--x-x-5--3-3-(x3)--5-5-5--3-5--|
a-x-x-3--3-3--x-x-3--3-3-------3-3-3--3-5--|
e--------1-1---------1-1--------------1-3--|

Chorus

IntroA


Outro:
                                             
e-------------------------------------------|
b-----9^^-------9^^---9^^-repeat as needed--|
g-------------------------------------------|
d-7-7------7-7------7-7---------------------|
a-0-0------0-0------0-0---------------------|
e-------------------------------------------|

   A   G   F#  F    A   G   F#  F E A
e--------------------------------------|
b--------------------------------------|
g-----------------------------------2--|
d--7-7-5-5-4-4-3-3--7-7-5-5-4-4-3-2-2--|
a--0-0-0-0-0-0-0-0--0-0-0-0-0-0-0---0--|
e--------------------------------------|


===================================================================================== 
===================================================================================== 


song - pictures in the mirror 
artist - the living end 
album - roll on 
tabbed by tom kelly 
  
standard tuning 
intro: G - C | G - C | G - C | Bb - F - D# - C| 
                           \__________________/ 
                                    /\ 
                              played quickly 
verse: C (strum really quickly with a palm mute) then a quick strum of G 
pre chorus 

    C           D            F 
e|----------------------------------------------------------------------- 
B|----------------------------------------------------------------------- 
G|--5-5-5~-----7-7-7~-------10-10-10~-------7b-5-7b-5-7b-5-7b-5-7b-7b---- 
D|--5-5----x3--7-7-----x3---10-10------x3---7b-5-7b-5-7b-5-7b-5-7b-7b--- 
A|--3-3--------5-5-----------8--8--------------------------------------- 
E|----------------------------------------------------------------------- 
(~ means just wobble the string to get the right sound) 

e|---------------------------------------- 
B|---------------------------------------- 
G|---7b-5-7b-5-7b-5-7b-5-7b-7b------------- 
D|---7b-5-7b-5-7b-5-7b-5-7b-7b------------------ 
A|---------------------------------------- 
E|---------------------------------------- 

chorus: D | G | D | A | D - G | C | 

little lick in the second verse 
e|---------------------------------------- 
B|---------------------------------------- 
G|---------------------------------------- 
D|---------------------------------------- 
A|--------3-3---3---------------------------- 
E|--3-3-5-----5------------------------------- 

end of second chorus: C | D# - F | Bb - C| x2 

then the solo: 
e|------------------------------------------------ 
B|-------4----------4------------4---------4-6b- 
G|---5-5---5--5-5-5---5-3-5--5-5---5-5-5-5---------------- 
D|--------------------------------------------- 
A|------------------------------------------- 
E|----------------------------------------------- 
  

e|---------------------------------------- 
B|---------------------------------------- 
G|-----------------10--5--------------------- 
D|-----------------10--5--------------------- 
A|--1-0-------------8--3----------------------- 
E|------3-1-0-1-3------------------------------ 
  

e|-------------------14b-14-12-14b-12------17b-17-15-14-14-15-17---------- 
B|--13-12-10-12-----------------------13-------------------------15-13---- 
G|--------------9--------------------------------------------------------- 
D|----------------------------------------------------------------------- 
A|------------------------------------------------------------------------ 
E|----------------------------------------------------------------------- 

e|------------------------7----------------- 
B|---------------------------------------- 
G|--5-3--10-9--9-8----9-----9---9----9-9-9-9----- 
D|--5-3--10-9--9-8------9-----9------9-9-9-9----- 
A|--3-1---8-7--7-6--7----------------7-7-7-7-------- 
E|------------------\_____x3_____/---------------------- 
  

finish with another pre chorus and chorus 

===================================================================================== 
===================================================================================== 

song - riot on broadway 
artist - the living end 
album - roll on 
tabbed by tom kelly 

standard tuning. i can't quite get the solo in this. but if you want to 
have a go i think its played mostly in Bm pentatonic. 

intro 
e|------------------------------------------------- 
B|------------------------------------------------- 
G|---9-9-9--9-9-7--7s5-----------------------------
D|---9-9-9--9-9-7--7s5-5-7-------------------------
A|---7-7-7--7-7-5--5s3-5-7-------------------------
E|---------------------3-5------------------------- 

verse: A | E - G - C - B | A | E - G - C - B | 

pre chorus 
    Bm7            Am7 
e|-------2---------------0--------------------------- 
B|---------3---------------1------------------------- 
G|--------------------------------------------------- 
D|----4--------------2---------x2-then-5-5--7--------
A|--2--------------0-------------------5-5--7--------
E|-------------------------------------3-3--5-------- 

chorus: D - Bb | G | D - Bb | G | D - Bb | G | A | Bb | 

post chorus 
e|------------------------------------------------- 
B|------------------------------------------------- 
G|--7-7-------------------------------------------- 
D|--7-7-------------------------------------------- 
A|--5-5----8~~------------------------------------- 
E|-------6----------------------------------------- 

after second chorus 
e|------------------------------------------------- 
B|------6------4--------4--------4----------------- 
G|------------------------------------------------- 
D|---8-----8s6----6s5-------5s3-------------------- 
A|------------------------------------------------- 
E|------------------------------------------------- 

solo: 
e|---------5h6p5-------5h6p5-------5h6p5--------------- 
B|---------------5h6p5-------5h6p5-------5h6p5--------- 
G|--7-7------------------------------------------7-7--- 
D|--7-7------------------------------------------7-7--- 
A|--5-5------------------------------------------5-5--- 
E|----------------------------------------------------- 

e|----10--10-----10----10------------------------------
B|-10--------12-----10-------------------10------------
G|------------------------12--12-10------10------------
D|-----------------------------------12------12-10-12--
A|-----------------------------------------------------
E|----------------------------------------------------- 

e|----------------------------------- 
B|----------------------------------- 
G|----------------------------------- 
D|---10----10h12p10----10-12p10h12--- 
A|------12----------12--------------- 
E|----------------------------------- 

e|-10-7-10-7-10-7----------------------------------------10- 
B|----------------10-7-10-7-10-7-----------------------7---- 
G|-------------------------------9-7-9-7-9-7-------7-9------
D|-------------------------------------------9-7-9---------- 
A|---------------------------------------------------------- 
E|----------------------------------------------------------

post solo verse bit(we won't run anymore....but we'll scream and shout...) 

 G | Bb | G | Bb | G | A | Bb | Bb | Bb | Bb | 

key change before next chorus. same patern just 2 frets up. 

final chorus: E (7) - C | A | E - C | A | E - C | A | B | C | 

e|--------7h8p7-------7h8p7-------7h8p7--------------- 
B|--------------7h8p7-------7h8p7-------7h8p7-------- 
G|--9-9-----------------------------------------9-9--- 
D|--9-9-----------------------------------------9-9--- 
A|--7-7-----------------------------------------7-7--- 
E|---------------------------------------------------- 

===================================================================================== 
===================================================================================== 

song - staring at the light 
artist - the living end 
album - roll on 
tabbed by tom kelly 

standard tuning. all chords used are bar chords 

intro (all with palm mute) 

      Eb    Bbadd11   Bmaj7 
e|---------------------------------------------------- 
B|---------------------------------------------------- 
G|-------8-------8-------8------------------------------- 
D|-----8---8---8---8---8---8------------------------------- 
A|---6-------8-------9----------------------------------- 
E|---------------------------------------------------- 
  

verse: Eb | Bb | B | B 

pre chorus:
      
e|---------------------------------------------------- 
B|----------10---------------8--------------------------- 
G|------7-------7---7----7-----7---7---x3------------------ 
D|----9---9-------9----9---9-----9---------9-9-9-9-9------------- 
A|-----------------------------------------9-9-9-9-9--------- 
E|-----------------------------------------7-7-7-7-7------- 
  
  

chorus: Em(7) | G | Em | G | Em | G | G | B | C | C | 

lick played after second chorus: 
e|---------------------------------------------------- 
B|---8-7s5s3s12---x4--------------------------------------------- 
G|---------------------------------------------------- 
D|---------------------------------------------------- 
A|-------------------------------------------------- 
E|---------------------------------------------------- 
  

bit before third chorus:  B | B | G | A | B | 

bit after third chorus 
e|---------------------------------------------------- 
B|---------------------------------------------------- 
G|---------5s7---11-11--11--12-11-9--------------------------------- 
D|---------------11-11--11--12-11-9------------------------------ 
A|--5--7-5--------9--9---9--10--9-7--------------------------------- 
E|---------------------------------------------------- 

e|---------------------------------------- 
B|---------------------------------- 
G|------9--11-12-12-12-11-9-7---   first time through, finish with riff 1, 
D|----------------------------x2-  second time though, finish with riff 2. 
A|------7---9-10-10-10--9-7-5------------------- 
E|---0------------------------------------------------ 

riff 1                     riff 2 
e|---7-7-7-7--------     e|---7--8-8-8--7--8-8-8--7-- 
B|---5-5-5-5---------    B|---5--5-5-5--5--5-5-5--5- 
G|---7-7-7-7--------     G|---7--7-7-7--7--7-7-7--7- 
D|---5-5-5-5---------    D|---5--5-5-5--5--5-5-5--5- 
A|---5-5-5-5----------   A|---5--5-5-5--5--5-5-5--5-- 
E|---------------        E|------------------------- 

also every now and then you here some harmonics. usually 
in the pre chorus riff. something like 
  

e|-------------<7>--------------------------------------- 
B|---------<7>-----<7>-------------------------------------- 
G|-----<7>----------------------------------------------- 
D|---------------------------------------------------- 
A|---------------------------------------------------- 
E|---------------------------------------------------- 

===================================================================================== 
===================================================================================== 

song - carry me home 
artist - the living end 
album - roll on 
tabbed by tom kelly 

dropped D tuning 

this one was a real challenge and there will be some mistakes. 
but its good enough. 

intro 
e|-------------------------------------------------------- 
B|-------------------------------------------------------- 
G|-------------------------------------------------------- 
D|-0----------3-3-5br-3-5-3---------3-3-5-3---------------x2 
A|-0--3-3-5-3---------------3-3-5-3---------3-3-5-3-3-3-5- 
D|-0------------------------------------------------------- 

e|-------------------------------------------------------- 
B|-------------------------------------------------------- 
G|-------------------------------------------------------- 
D|-3-0----------3-3-5br-3-5-3---------3-3-5-3--------------- 
A|-3-0--3-3-5-3---------------3-3-5-3---------3-3-5-3-3-3-5- 
D|-3-0------------------------------------------------------- 

e|-------------------------------------------------------- 
B|-------------------------------------------------------- 
G|-------------------------------------------------------- 
D|-0----------3-3-5br-3-5-3---5-0-0-6-0-0-7-0-0-6-0-03--- 
A|-0--3-3-5-3---------------3----------------------------- 
D|-0------------------------------------------------------- 

e|-------------------------- 
B|------------------------ 
G|-------------------5-7--- 
D|-------3-5-5-3-----5-7-- repeat last line as necessary 
A|-5-5-5---------3br-3-5--- 
D|------------------------- 

verse 
e|------------------------------- 
B|-------------------------------- 
G|-7-7------------------------5-- 
D|-7-7------3-3-5-3-3-3-------5-- 
A|-5-5--3-5-------------3br-3-3-- 
D|--------------------------------- 

e|---------------------------------------------------- 
B|---------------------------------------------------- 
G|--------4--------4----2-------------------------------- 
D|--5--2--4--5--2--4----2------------------------------------ 
A|--5--2--2--5--2--2----0------------------------------------ 
D|--5--2-----5--2----------------------------------------- 

pre chorus: 
e|---------------------------------------------------- 
B|---------------------------------------------------- 
G|------------------------------------------2-2--------- 
D|--1-1-1--3--0--1-1-1--3--0--1-1-1--3--0---2-2-------------------------------------- 
A|--1-1-1--3--0--1-1-1--3--0--1-1-1--3--0---0-0-------------------------------------- 
D|--1-1-1--3--0--1-1-1--3--0--1-1-1--3--0----------------------------------------- 

chorus: 
e|----------------------------------------------------------------- 
B|----------------------------------------------------------------- 
G|------------------------------------------------------------------ 
D|--0-3-5--0-3-5--0-3-5-6-5-3-5---5-8-10--5-8-10-5-8-10-11-10-8-10-- 
A|--0-3-5--0-3-5--0-3-5-6-5-3-5---5-8-10--5-8-10-5-8-10-11-10-8-10---- 
D|--0-3-5--0-3-5--0-3-5-6-5-3-5---5-8-10--5-8-10-5-8-10-11-10-8-10-- 

second part of chorus: 
e|---------------------------- 
B|---------------------------- 
G|---------------9-7-9-10-9-5- 
D|-7-7-8-8-8-7---9-7-9-10-9-5- x3 
A|-7-7-8-8-8-7---7-5-7--8-7-3- 
D|-7-7-8-8-8-7---------------- 

e|----------------------------------------- 
B|--------------------------------------- 
G|---------10s9s7s5-7-5-7-7-----------7---- 
D|-11-11---10s9s7s5-7-5-7-7--6-5-3-0--7------ 
A|-11-11----8s7s5s3-5-3-5-5--6-5-3-0--5-- 
D|-11-11---------------------6-5-3-0---- 

solo: 
e|------------------11---------------------------------- 
B|---------------11------------------------------------ 
G|--7-8-9-----10-------7--7-9-7-9-7-9-7-7-9-7-9-7-9-7-7 
D|--7-8-9--8---------------------------------------------- 
A|--5-6-7------------------------------------------------ 
D|---------------------------------------------------- 

e|---------------------------------------------------- 
B|---------------------------------------------------- 
G|-8-9-10--11--12--13--10-11-12-13--------------15-17- 
D|-8-9-10--11--12--13--10-11-12-13--15-17-15-17------- 
A|---------------------------------------------------- 
D|---------------------------------------------------- 

e|------------------------------------------------------------ 
B|-15-17-18-18-18-18-18------8------8------8------8----------- 
G|-----------------------10b---10b----10b----10b----10br-10---- 
D|-----------------------10b---10b----10b----10b----10br----12- 
A|------------------------------------------------------------ 
D|------------------------------------------------------------ 

e|----------------------------5------------------------ 
B|--10------10------10-----10---8-7-5------------------- 
G|-----12b-----12b-----12b------------7-5---------------- 
D|-----12b-----12b-----12b----------------7-5------------- 
A|--------------------------------------------7-6-5-3-0--- 
D|-------------------------------------------------------- 

outro: 
e|----------------------------------------------------- 
B|------------------------------------------------------- 
G|---10s9s7s5-7-5-7-7---------------------------------7-- 
D|---10s9s7s5-7-5-7-7--6-5-3----10-8------8-6---6-----7-- 
A|----8s7s5s3-5-3-5-5--6-5-3------------------7---7-6-5-- 
D|---------------------6-5-3-0-------10s8--------------- 

===================================================================================== 
===================================================================================== 

song - don't shut the gate 
artist - the living end 
album - roll on 
tabbed by tom kelly 

standard tuning 

e|---------------------------------------------------- 
B|---------------------------------------------------- 
G|---------------------------------------------------- 
D|---------------------------------------------------- 
A|------0h2p0---0--x4----------0h2p0---0--1-0--0-----x5 
E|-0--3-------3-----------0--3-------3-----------0-3-- 
  

e|---------------------------------------------------- 
B|---------------------------------------------------- 
G|---------------------------------------------------- 
D|---------------------------------------------------- 
A|------0h2p0---0--1--0--1--0------------------------- 
E|-0--3-------3----------------6-5-3--6-5-3--6-5-3-etc- 

verse: 
e|---------------------------------------------------- 
B|---------------------------------------------------- 
G|---4----4----4----4----4-------------------------------------- 
D|-----3----3----3----3----3----------------------------------5-- 
A|-------2----2----2----2----------0h2p0---0-------0h2p0---0--5---- 
E|----------------------------0--3-------3----0--3-------3----3-- 

chorus: C | G | F# | F | 

post chorus: 
e|---------------------------------------------------- 
B|---------------------------------------------------- 
G|---------------------------------------------------- 
D|----------------------12b----7----5---------------------- 
A|----------0-0---0-----12b----7----5------------------------- 
E|--0-0-3-0-----3------------5----5-------------------------- 

verse 2: 
e|---------------------------------------------------- 
B|---------------------------------------------------- 
G|---4----4----4----4----4-------------------------------------- 
D|-----3----3----3----3----3-----------------------------------5- 
A|-------2----2----2----2-------------0-0---0----------0-0---0-5--- 
E|----------------------------0-0-3-0-----3----0-0-3-0-----3---3----- 

solo: 
e|--------------------------------------------- 
B|------------------------------------------------- 
G|------------------------------------------------ 
D|---------------------------------------0---------- 
A|--7p0-9p0-9p0-10p0-----------0-0---0-1---4-1-0-0-- 
E|---------------------0-0-3-0-----3--------------- 
  

e|---------------------------------3-000-5-000-6-000-7-000---- 
B|------------------------3-2------------------------------- 
G|----------0---2-2-0-2-3-----3-2--------------------------- 
D|--0-1-2-2---2--------------------------------------------- 
A|--------------------------------------------------------- 
E|-------------------------------------------------------- 
(000's are three 0's played really quickly) 

e|--7-------5~~---12~~------------------------------- 
B|--7-------5~~---12~~--------------------------- 
G|--7-------5~~---12~~---------------------------- 
D|--7-----------------------7h8p7---7---5--------- 
A|--7------------------------------------------ 
E|--7--------------------0--------0---0---------- 

main riff starts, then: 

e|---10s12~~--10------------------------------------- 
B|---------------12-12p10-12p10--------------------- 
G|------------------------------9---------------------- 
D|---------------------------------------------------- 
A|---------------------------------0h7-0h6-0h5-0h4------ 
E|---------------------------------------------------- 

and thats it. happy playing... 

===================================================================================== 
===================================================================================== 

song - dirty man 
artist - the living end 
album - roll on 
tabbed by tom kelly 
  

intro: there is a guitar in the background 
        strumming an A chord too 
e|------------5-5----------5-5----------------- 
B|--------5-5----------5-5----------5-5--------- 
G|---------------------------------------- 
D|---7-7-----------7-7----------7-7----------- 
A|----------------------------------------- 
E|---------------------------------------- 
(there is a guitar in the background strumming an A chord too) 

verse 
e|-----------         ---------9-9-- 
B|-----------         -------------- 
G|-----------         -------------- 
D|-11--9--7--x4  then --11-11-------x4 
A|--0--0--0--         --11-11------- 
E|-----------         ---9--9------- 

pre chorus: D | E(7) | A | F# | D | E | F#(9) | F# | 

and made a part of history... 
F#(9) | F#  finish with a G 

chorus: C | B | A | E | F | G  x2 

        Not my fault...  thrown it all away... 
        A | G | A |       C | C 

solo: 
e|-------------------------------- 
B|-------------------------------- 
G|--3-5--3-5--3-5--3-5--3-5-5-3---- 
D|--3-5--3-5--3-5--3-5--3-5-5-3--- x4 
A|--------------------------------- 
E|---------------------------------- 

e|---------------------------------------------------- 
B|---------------------------------------------------- 
G|--5-5-7-8-7---8-8-10-11-10-------------------------------------- 
D|--5-5-5-5-5---8-8--8--8--8------------------------------------- 
A|---------------------------------------------------- 
E|---------------------------------------------------- 

last pre chorus: 

e|-----------------------------2-- 
B|-----------------------------2---- 
G|--7-7-9-11--9-9-11-13--------3---- then back to normal 
D|-----------------------7--6--4--- pre chorus 
A|--5-5-7--9--7-7--9-11--7--6--4----- 
E|-----------------------5--4--2--- 

outro 
e|-3-3-3-3-----3-3-3-        e|-----------0-- 
B|-5-5-5-5-----5-5-5-        B|-----------0-- 
G|-5-5-5-5-----5-5-5-        G|-----------0--strum this chord 
D|-5-5-5-5-----5-5-5-x4 then D|-----------2- from high e string 
A|-3-3-3-3---3-3-3-3-        A|---3-2-----2--to low E string 
E|---------3---------        E|-------3-2-0-- 
  

===================================================================================== 
===================================================================================== 
  

song - blood on your hands 
artist - the living end 
album - roll on 
tabbed by tom kelly 

standard tuning 

intro: 
e|---------------5-7-----------------10p8-10------------------ 
B|-------------5---5---------5-----8--8----8---------------- 
G|------0------------------5---7s9------------------------- 
D|----0---5s7----------5s7----------------------------------- 
A|--0-------------------------------------------------- 
E|---------------------------------------------------- 

verse: 
e|--------------------------7--7---------------------7--7- 
B|------------[5]-----------7--7---------------------7--7-- 
G|---------------[5]-------------------------9-8--9------ 
D|---------[7]-------[7]-----------------[9]-------------- 
A|-------------------------------[0]-[0]------------------ 
E|-[5]-[5]--------------[5]------------------------------ 
(everything inside [] has a palm mute) 

middle bit of verse 
e|--7-7--5--5-5--5--5-5--5--5-5--5------ 
B|--7-7--5--5-5--5--5-5--5--5-5--5-- 
G|------------------------------------ 
D|------------------------------------ 
A|----------------------------------- 
E|------------------------------------- 

pre chorus: 

e|--3------------- 
B|--3--3-3-------- 
G|--4------5-3-5-- 
D|--5------------- finish with an A chord 
A|--5------------- 
E|--3------------- 

chorus: D | Bb | G | C - A | 

finish chorus with: 
e|---------------------- 
B|---------------------- 
G|------7----------------- 
D|----7-------7----------- 
A|--5-------7----------- 
E|--------5-----6--0---- 

post chorus: (only after second chorus 
  A | Bb | B | C | E(7) | F | G - G# | A 

  D | Dmaj7 | A | G | Bb | Eb | A | G 

e|------ 
B|------- 
G|--6--  /___ Dmaj7 
D|--7--- \ 
A|--5--- 
E|------ 

life is a sin...   last time through he plays 
G | A | Bb | G        B | B | B | C 

outro: 
e|---------5-5------------5-5----- 
B|---6p5-6-----6p5--6p5-6-----6p5- repeat as necessary 
G|-------------------------------- 
D|-------------------------------- 
A|--------------------------------- 
E|------------------------------- 

===================================================================================== 
===================================================================================== 

song - silent victory 
artist - the living end 
album - roll on 
tabbed by tom kelly 

standard tuning 

intro: 
e|--7s9--9s3--3-3p2--2----------         e|---------- 
B|--7s9--9s3--3-3----3-----3----         B|---------- 
G|-----------------------2------         G|---------- 
D|---------------------0-------- x2 then D|--5-7-7--- 
A|---------------------------0--         A|--5-7-7--- 
E|------------------------------         E|--3-5-5--- 

verse: G - A | E 

pre chorus: 
e|------------------        e|--2-------------------------------- 
B|------------------        B|--2-------------------------------- 
G|--4-4-4-----------        G|--3-------------------------------- 
D|--4-4-4-----4-2-2-x3 then D|--4--[7]-[6]-[7]-[4]-[7]-[6]-[7]-6-- 
A|--2-2-2-2h4---2-2-        A|--4------------------------------6-- 
E|----------------0-        E|--2------------------------------4-- 
                              (notes in [] have a palm mute) 

chorus: C# | A | E(7) - B | C# | A | A | C# | A | 
                            then 
        G - A - E(0) | G - A - E | G - A - E | G - A - A 
  

solo: 
e|------------------------------------------------------- 
B|--------------------------------------12--15-12-15-15b- 
G|--------------------------9-9--12--14------------------- 
D|-7-7-8-8-9-9-10-10-11-11------------------------------ 
A|-7-7-8-8-9-9-10-10-11-11------------------------------ 
E|-5-5-6-6-7-7--8--8--9--9------------------------------ 

e|---------------------------------------------------- 
B|---------------------------------------------------- 
G|--14--14--14-------------------------------12-------- 
D|--14b-14b-14br-12--------12h14p12----12s14-----12---- 
A|-------------------12h14----------14--------------14- 
E|---------------------------------------------------- 

e|----------------------18-20------------------------- 
B|-13b-13b--------15-17-------17br-------15-17--15-17- 
G|----------14s16------------------12s15-15-17--15-17- 
D|---------------------------------------------------- 
A|---------------------------------------------------- 
E|---------------------------------------------------- 

e|---------------------------------------------------- 
B|---------15-17-17br-15h17------------------------------ 
G|---14s16-----------------------7h9p7---7h9p7---7h9p7--- 
D|---------------------------7h9-------9-------9-------9---- 
A|---------------------------------------------------- 
E|---------------------------------------------------- 

e|-------------------7h10p7----10-7-10s12-- 
B|--------------7h10--------10------------- 
G|-7h9p7---7h9------------------------------ 
D|-------9--------------------------------- 
A|--------------------------------------- 
E|---------------------------------------- 

little lick after solo: 

somebody seize the day... 
e|------------------------------------------- 
B|----------------------------------------- 
G|--------7---6-----7---6------7---6---7s10-- 
D|--3s5-5---5---5-5---5----4-4---4---4--------- 
A|------------------------------------------- 
E|--------------------------------------------- 

final chorus: D# | B | F#(9) | C# | D# | B | B | 

one more silent.... 
 C# - A | E(7) - B | C# - A | E - B 

outro: G - A | E - E(7) 

===================================================================================== 
===================================================================================== 

song - read about it 
artist - the living end 
album - roll on 
tabbed by tom kelly 

standard tuning 

verse: Gm(10) | Dm | Dm - Gm | a few times 

      god creates the madness... 
         C | E(7) 
      your photo on the cover of... 
         B | E(7) | B | E(0) 

chorus: 
e|----------------------------------- 
B|-----------5--3--5--3--5{6}-3--5--- notes in {} 
G|-------7---5--4--5--4--5{5}-4--5---are played second 
D|--3-3--7---------------------------time thru only 
A|--3-3--5--------------------------- 
E|--1-1------------------------------ 

we fantasise, comitting crimes.... 
e|-------(0)----(0)----3-2-0-------- 
B|------5(0)---5(0)----3-3-0-3s5----0's in () can be 
G|------4------4-------------2s4----played instead of 
D|--7-------3-----------------------   E|--- 
A|--7-------3-----------------------   B|-5- 
E|--5-------1-----------------------   G|-4- 
after the second chorus instead of this riff 
you just play E(7) a few times. just before the solo... 

                sweep strum 
solo:           /     \ 
e|-0-----------------5------------------------------ 
B|-0--------5-------5------------------------------ 
G|-2------5---5----5--------------------------2-4br- 
D|-2--5s7---------7-------------------2-----2-------- 
A|-0-------------7--------------0-2-3----2---------- 
E|-0------------5----------1-3-----------0----------- 

e|--------------------------------------------------5- 
B|--10s12--12-10-10-8-8-7-7-7h8p7p5-7p5---------5h7--- 
G|--------------------------------------7p5p4h5------- 
D|---------------------------------------------------- 
A|---------------------------------------------------- 
E|---------------------------------------------------- 

e|----------------------7br-------------------- 
B|--------5-----------8------------------------ 
G|----4-5-----------9--------9-9-9-9--9-9-9-9-- 
D|--7------------------------9-9-9-9--9-9-9-9--- 
A|------------6s8------------7-7-7-7--7-7-7-7-- 
E|------------6s8------------------------------ 

e|--------------------------------------------------- 
B|------------------------------------------------- 
G|----------------------------------------9-9-9-9-- 
D|-----------7h9-7-----------4---5h7-5-4--9-9-9-9--- 
A|--7-9-10-7-------10-9--5-7---5----------7-7-7-7- 
E|-------------------------------------------------- 

e|---------------------------------------------------- 
B|---------------------------------------------------- 
G|---------------------------------------------------- 
D|----------7h9-7-----------4---5h7-5-4-------------- 
A|-7-9-10-7-------10-9--5-7---5---------5--3-5-3-2-0- 
E|---------------------------------------------------- 

e|----------- 
B|----------- 
G|----------- 
D|----------- 
A|----------- 
E|--3-1-0-1-- 

last chorus: and so we remain.... 
             B | C | B | B 
outro is end of solo, but finished on the E note, not F. 

===================================================================================== 
===================================================================================== 

song - killing the right 
artist - the living end 
album - roll on 
tabbed by tom kelly 

standard tuning 

intro: you don't actually pick this. its two strums 
       for each bit. 
e|--2------2------2------3------2-------------7-7-7- 
B|--3-3----3-3----3-3----4-4----3-3-----------8-8-8- 
G|--4--4---4--4---4--4---5--5---4--4----------9-9-9-- 
D|--4---4--4---4--4---4--5---5--4---4---------9-9-9-- 
A|--2------2------2------3------2-----2---7--------- 
E|----------------------------------------0-0-------- 

killing the right... 
 D | D | D 

verse: Em(7) | F - Em | D - C | D - C 

well the speakers start screaming... 
       Cm                  Bm 
e|----3-------3-----------2-------2----- 
B|------4-------4-----------3-------3--- 
G|--------5-------5-----------4-------4- 
D|-------------------------------------- 
A|--3-------3-----------2-------2------- 
E|--------------------------------------- 

its not right, its a f@#!ing outcry... 
  D | B 
  

chorus: C | G  the next few are hard to here over the 
                trumpets but i play: C C# D | D E F 

end of first chorus: 
e|---------------------------------------------------- 
B|--2--------2h3p2-0----------------------------------------- 
G|----4-2-4---------------------------------------------- 
D|-------------------3--------------------------------- 
A|---------------------------------------------------- 
E|---------------------------------------------------- 

  taxi, get me out...         don't wanna listen to the voices... 
 F(8) | E(7) | D | F(1) | G# | A | G 

last chorus: there are 3 riffs played. 
riff 1: 
e|---------------------------------------------- 
B|--13s15--13-12h13p12----------12-12h13p12------- 
G|---------------------14-12-14-------------14-12---- 
D|------------------------------------------------- 
A|----------------------------------------------- 
E|--------------------------------------------- 
riff 2 
e|------------------------------------------ 
B|----------------------------------------- 
G|---------5-6-7---12-10h12p10----12s14----- 
D|---5-3---5-6-7---------------12------------ 
A|-------5-------------------------------- 
E|----------------------------------------- 
riff3 
e|--------------------------13-12h13p12----15b----------- 
B|-----------------11-13-11-------------13-------------------- 
G|-----------10s12----------------------------------------- 
D|--10s12-12------------------------------------------------- 
A|---------------------------------------------------- 
E|---------------------------------------------------- 

outro: C | G | D x3 and to finish: C | G | B - C | D - D# | E(7) 
  
===================================================================================== 
===================================================================================== 

song - astoria paranoia 
artist - the living end 
album - roll on 
tabbed by tom kelly 

dropped d tuning 
so chords are like this: 
  D A D G B E 
D|0-0-0 
E|2-2-2 
F|3-3-3 
G|5-5-5 
and you can work out the rest. chords on the 5th string stay the same. only 6th string chords change. 

intro: E - D - D | E - D - D | E - D - E 

verse: E | G | C | C - D - E x2 then E | G | D(5) - C | C - D - E 

some of the little licks in the verses 
1 (first verse)                2 ( first verse) 
e|-7--7--7--7--7--7--7--7-   e|----------------------- 
B|-8--7--8--7--8--7--8--7-   B|--8-8-8-8-8-8-8-8-8-8------ 
G|-9--7--9--7--9--7--9--7-   G|--9-9-9-9-9-9-9-9-9-9---- 
D|-9--7--9--7--9--7--9--7-   D|----------------------- 
A|-7--7--7--7--7--7--7--7-   A|----------------------- 
D|------------------------   D|----------------------- 

3(1st and 2nd vese)  4.(in second verse) 
e|-----------       e|------------------------ 
B|-----------       B|--8-8-8-8-8-8-8-8-8-8------ 
G|-0-2-4-5-4-       G|--7-7-7-7-7-7-7-7-7-7------- 
D|-----------       D|-------------------------- 
A|-----------       A|---------------------------- 
D|-----------       D|-------------------------- 

chorus: 
e|------------------------------------ 
B|------------------------------------- 
G|------------------------------------ 
D|--10--10--10--5-7-9-10-9---5-7-9-10---- 
A|--10--10--10-------------------------- 
D|--10--10--10------------------------ 

interlude: 
e|-------------------------------------------12-12-12-12ect----- 
B|------------6h7p6--------------------------------------- 
G|----8----6--------8-6--- x2 ------8--9--8---------------- 
D|-6----9--6------------9--------7------------------------ 
A|-6-----------------------------7--------------------- 
D|-6--------------------------17s7----------------------- 

solo: 
e|---------------------------------------------------------- 
B|-------------------------------------------5-------3-0-1- 
G|---------------------------------------2s4---4s2-0---------- 
D|------5-4s5-5h7p5-4-------------------------------------- 
A|--7-7---------------7-5-7-5-3--2h3p2-------------------- 
D|---------------------------------------------------- 

e|--0h3h5p3-0h3h5s7---0h10h12p10-0h10h12p10-0h10h12p10- 
B|--------------------------------------------------- 
G|---------------------------------------------------- 
D|---------------------------------------------------- 
A|---------------------------------------------------- 
D|---------------------------------------------------- 

e|-0h10h12p10-0h12-14p12p0-14p12p0-14p12-14b---------------- 
B|--------------------------------------------12s17-16------- 
G|---------------------------------------------------- 
D|---------------------------------------------------- 
A|---------------------------------------------------- 
D|---------------------------------------------------- 

e|---------------------------------------------------- 
B|-15-14-13------------------------------------------------- 
G|-----------5s9-7---------------------------------------- 
D|-----------------7-5-7br-5--------------------------------- 
A|---------------------------7------------------------- 
D|---------------------------------------------------- 

outro: 
e|-12-12-12-12-12-12-12--------------------------------------------- 
B|---------------------------------------------------- 
G|------------------------9-7-9-7------------------------- 
D|------------------------9-7-9-7------------------------- 
A|---------------------------------------------------- 
D|---------------------------------------------------- 

===================================================================================== 
===================================================================================== 

song - uncle harry 
artist - the living end 
album - roll on 
tabbed by tom kelly 

this isn't complete i don't think but it'll do.
standard tuning 

intro/chorus: C | F - G | A | F - G | 

verse: Bb - A | Bb - F# - F | x2 
                  then 
       C# - C | C# - A - Ab | x2 

       Bb - Bb | A 

verse 2: F - G# | Eb - F(8)  finish on G(10) 
  
last chorus: D | G - A | B | G - A |
comments
print report bad tab
4 comments total. Showing first comments.
0 reply
sir eddie wrote on March 12 2002, 12:00 am

tommy this is crap!!! it's all wrong! you must have a hearing problem!i expected alot more from you!

nah man just mess'n it's wicked, u did well dude!
you should tab'n "hellowed be thy name" by cradle of filth!!it's a sick song!

0 reply
buggerya wrote on October 11 2002, 12:00 am

mate mate mate, what the hell was that? look, i know you're having a go and everything... BUT IF IT'S NOT RIGHT, DON'T PRINT IT!

0 reply
guitar7 wrote on October 13 2006, 10:02 pm

the was good. a few errors here and ther but otherwise wicked.

I want to post or [tab]
guest
You may want to rate the tab now too:
select rating
Please do not post tabs as comments. Select "correction" instead!