Oops, an error
Loading. Please wait.

State Of Emergency Tab

ver1
ver1

Album

Whole song

Interactive

More versions @911Tabs.com
2,994 views 1 this week
5 commentsread comments
1 2 3 4 5
excellent!
x 8
Autoscroll
+/-
esc
set tempo
stop
Contributor
Difficulty
intermediate
Hey! There's an official Ultimate Guitar app which is ideal
for learning songs when you're away from computer. Get the app
WARNING: You are trying to view
                                    content from Ultimate-Guitar.com
                                    in an unauthorized application,
                                    which is prohibited.

                                    Please use an official Ultimate
                                    Guitar Tabs application for iPhone,
                                    iPad or Android to access legitimate
                                    chords, guitar, bass, and drum tabs
                                    from Ultimate-Guitar.com database.

                                    Type "ultimate guitar tabs" in Apple
                                    App Store's or Android Market's
                                    search to find the application.
Okay...... Mucho-mum has just freshind up this tab by adding Order Of The Day!!! YAYY! 
for that mucho-mum...... And thank u so much Jason.Z U guys are awsome tabbers!


STATE OF EMERGENCY-2006
1.'Till The End
2.Long Live The Weekend
3.No Way Out
4.We Want More
5.Wake Up
6.What's On Your Radio?
7.Nothing Last forever
8.Order Of The Day
9.Reborn
10.One Step Behind
11.Nowhere Town
12.State Of Emergency
13.Black Cat
14.Into The Red
________________
/ = slide up
\ = slide down
h = hammer on
p = pull off
b = half bend
^ =bend one fret
^^ = bend 2 frets
v = release bend
pm = palm mute
x = dead note
_________________

                     ---Till The End---

Intro:

e----------------------------------------------------------------------------|
b--------------------4-----4-----4---4-----4-----4---4-----4-----4---4-4-4---|
g--------------------4-----4-----4---4-----4-----4---4-----4-----4---4-4-4---|
d--------------------4-4-4-4-4-4-4-4-4-4-4-4-4-4-4-4-4-4-4-4-4-4-4-4-4-4-4---|
a--7~----------------2-2-2-2-2-2-2-2-2-2-2-2-2-2-2-2-2-2-2-2-2-2-2-2-2-2-2---|
e----------------------------------------------------------------------------|


e----------------------------------------------------------------------------|
b----------------------------------------------------------------------------|
g--9---11--12---14~------9---11--12----9----11----12-12-12-12-12-12-12-12----|
d--x---x---x----x--------x---x---x----10-10-10-10-10-10-10-10-10-10-10-10----|
a--7---9---10---12~------7---9---10---10-10-10-10-10-10-10-10-10-10-10-10----|
e--0-0-0-0-0--0-0----0-0-0-0-0-0-0-----8--8--8--8--8--8--8--8--8--8--8--8----|


e----------------------------------------------------------------------------|
b--5---7---8---10~-----5---7---8---------------------------------------------|
g--x---x---x---x-------x---x---x-----9----11----12-12-12-12-12-12-12-12-12---|
d--2---4---5---7~------2---4---5----10-10-10-10-10-10-10-10-10-10-10-10-10---|
a--0-0-0-0-0-0-0---0-0-0-0-0-0-0----10-10-10-10-10-10-10-10-10-10-10-10-10---|
e------------------------------------8--8--8--8--8--8--8--8--8--8--8--8--8---|


e-----------------------------------------------------------------|
b--4-----4-----4---4-----4-----4---4-----4-----4---4-----4-----4--|
g--4-----4-----4---4-----4-----4---4-----4-----4---4-----4-----4--|
d--4-4-4-4-4-4-4-4-4-4-4-4-4-4-4-4-4-4-4-4-4-4-4-4-4-4-4-4-4-4-4--|
a--2-2-2-2-2-2-2-2-2-2-2-2-2-2-2-2-2-2-2-2-2-2-2-2-2-2-2-2-2-2-2--|
e-----------------------------------------------------------------|


e-----------------------------|
b-----------------------------|
g--9-----9-----9-----9--------|
d--9--9--9--9--9--9--9--9\----|
a--7--9--7--9--7--9--7--9\----|
e--0--7--0--7--0--7--0--7\----|


e------------------------------------------------------------------|
b------------------------------------------------------------------|
g------------------------------------------------------------------|
d------------------------------------------------------------------|
a----7---7---7---7---7---7---7---7---7---7---7---7---7---7---7---7-|
e--0---0---0---0---0---0---0---0---0---0---0---0---0---0---0---0---|
   pm...........................................


Verse
e-------------------------------------------------------------------|
b-------------------------------------------------------------------|
g----4---4---4---4---4---4---4---4----------------------------------|
d--2-------2-------2-------2----------4---4---4---4---4---4---4---4-|
a------2-------2-------2-------2----2-------2-------2-------2-------|
e---------------------------------------2-------2-------2-------2---|
   pm..............................................................


e-------------------------------------------------------------------|
b-------------------------------------------------------------------|
g-------------------------------------------------------------------|
d----2---2---2---2---2---2---2---2----4---4---4---4-4-4-4-4-4-4--1--| All
a--0-------0-------0-------0--------2-------2-------2-2-3-3-2-2-----|   x2
e------0-------0-------0-------0--------2-------2-------------------|
   pm..............................................


e-------------------------------------------------------------------|
b-------------------------------------------------------------------|
g-------------------------------------------------------------------|
d----5---5---5---5---5---5---5---7----9---9---9---9---9---9---9---9-|
a--3-------3-------3-------3---5----7-------7-------7-------7-------|
e------3-------3-------3----------------7-------7-------7-------7---|
   pm.....................          ...............................


e----------------------------------|
b----------------------------------|
g----------------------------------|
d----5---5---5---5---5---5---5---5-|
a--3-------3-------3-------3-------|
e------3-------3-------3-------3---|
   pm.............................

Pre Chorus:

e----------------------------------------------------------------------------|
b--1----4----5----7----4-----4-----4---4-----4-----4---4-----4-----4---4-4---|
g--2----4----5----7----4-----4-----4---4-----4-----4---4-----4-----4---4-4---|
d--2----4----5----7----4-4-4-4-4-4-4-4-4-4-4-4-4-4-4-4-4-4-4-4-4-4-4-4-4-4---|
a--0----0----0----0----2-2-2-2-2-2-2-2-3-3-3-3-3-3-3-3-2-2-2-2-2-2-2-2-2-2---|
e----------------------------------------------------------------------------|

Chorus:

e----------------------------------------------------------------------------|
b----------------------------------------------------------------------------|
g--9---11--12---14~------9---11--12----9----11----12-12-12-12-12-12-12-12----|
d--x---x---x----x--------x---x---x----10-10-10-10-10-10-10-10-10-10-10-10----|
a--7---9---10---12~------7---9---10---10-10-10-10-10-10-10-10-10-10-10-10----|
e--0-0-0-0-0-0--0----0-0-0-0-0-0-0-----8--8--8--8--8--8--8--8--8--8--8--8----|


e----------------------------------------------------------------------------|
b--5---7---8---10~-----5---7---8---------------------------------------------|
g--x---x---x---x-------x---x---x-----9----11----12-12-12-12-12-12-12-12-12---|
d--2---4---5---7~------2---4---5----10-10-10-10-10-10-10-10-10-10-10-10-10---|
a--0-0-0-0-0-0-0---0-0-0-0-0-0-0----10-10-10-10-10-10-10-10-10-10-10-10-10---|
e------------------------------------8--8--8--8--8--8--8--8--8--8--8--8--8---|

Post Chorus:

e-----------------------------------------------------------------|
b--4-----4-----4---4-----4-----4---4-----4-----4---4-----4-----4--|
g--4-----4-----4---4-----4-----4---4-----4-----4---4-----4-----4--|
d--4-4-4-4-4-4-4-4-4-4-4-4-4-4-4-4-4-4-4-4-4-4-4-4-4-4-4-4-4-4-4--|
a--2-2-2-2-2-2-2-2-2-2-2-2-2-2-2-2-2-2-2-2-2-2-2-2-2-2-2-2-2-2-2--|
e-----------------------------------------------------------------|


e-----------------------------|
b-----------------------------|
g--9-----9-----9-----9--------|
d--9--9--9--9--9--9--9--9\----|
a--7--9--7--9--7--9--7--9\----|
e--0--7--0--7--0--7--0--7\----|


e------------------------------------------------------------------|
b------------------------------------------------------------------|
g------------------------------------------------------------------|
d------------------------------------------------------------------|
a----7---7---7---7---7---7---7---7---7---7---7---7---7---7---7---7-|
e--0---0---0---0---0---0---0---0---0---0---0---0---0---0---0---0---|
   pm...........................................

Verse

Pre Chorus

Chorus


Pre-Solo:

e-------------------------------------|
b-------------------------------------|
g--9-9-9-9-9-9-9-9-9-9-9-9-9-9b-9b-9b-|
d--x-x-x-x-x-x-x-x-x-x-x-x-x-x--x--x--|
a--7-7-7-7-7-7-7-7-7-7-7-7-7-7--7--7--|
e-------------------------------------|

Solo: There's at least 2 guitars in this lol probably more.
      This is the best I can come up with

Guitar 1
e----------------------------------------------------------|
b----------------------------------------------------------|
g----4/7-10-9~---4/7-10-9~----9~--8--11-9------------------|
d----x---x--x----x---x--x-----x---x--x--x--9^v-7-9p7-------| x2
a----2/5-8--7~---2/5-8--7~----7~--6--9--7------------10-9--|
e--0-------------------------------------------------------|

Guitar 2
e------------------------------------------7^v-5-7p5-------|
b----------------------------------------------------8-7---|
g--4---2-5-4~-----2-5-4~------4~--2-/5-4~------------------|
d----4----------4------------------------------------------| x2
a----------------------------------------------------------|
e----------------------------------------------------------|

Guitar 1
e------------------------------------|
b------------------------------------|
g------------------------------------|
d----0-5-8-7~--x-x-x-10-9~--x-12-10--| x2
a--0---------------------------------|
e------------------------------------|

Guitar 2
e------0-3\2~--x-x-x-5\3~--x-7\5~----|
b--x-0---5\3~--x-x-x-7\5---x-8\7~----|
g------------------------------------|
d------------------------------------| x2
a------------------------------------|
e------------------------------------|

Guitar 1
e----------------------------------------------------------|
b----------------------------------------------------------|
g----4/7-10-9~---4/7-10-9~----9~--8--11-9------------------|
d----x---x--x----x---x--x-----x---x--x--x--9^v-7-9p7-------|
a----2/5-8--7~---2/5-8--7~----7~--6--9--7------------10-9--|
e--0-------------------------------------------------------|

Guitar 2
e------------------------------------------7^v-5-7p5-------|
b----------------------------------------------------8-7---|
g--4---2-5-4~-----2-5-4~------4~--2-/5-4~------------------|
d----4----------4------------------------------------------|
a----------------------------------------------------------|
e----------------------------------------------------------|

Guitar 1
e--------------------------------|----------------------------0--|
b--------------------------------|----------------------------0--|
g--4-----5-4~--4-----5-4~--------|--4-----5-4~----------------0--|
d--x-4-5-x-x---x-4-5-x-x---(x3)--|--x-4-5-x-x---9--7--5~--4~--2--|
a--2-x-x-3-2~--2-x-x-3-2~--------|--2-x-x-3-2~--x--x--x---x---2--|
e----2-3---------2-3-------------|----2-3-------7--5--3~--2~--0--|

Guitar 2
e--------------------------------|-------------------------------|
b--4-----5-4~--4-----5-4~--------|--4-----5-4~--4--5--7^--7~--5--|
g----2-4---------2-4-------------|----2-4------------------------|
d--------------------------(x3)--|-------------------------------|
a--------------------------------|-------------------------------|
e--------------------------------|-------------------------------|


Post-Solo: Just bass at the start,
           then guitar and drums kick in

e--------------------------------------------------------------|
b--------------------------------------------------------------|
g--------------------------------------------------------------|
d--2-------2-------2-------2-------2-------2-------------------|
a------2-------2-------2-------2-------2-------2---------------|
e----0---0---0---0---0---0---0---0---0---0---0---0--pickslide--|
   pm.............................................

Chorus


Outro:

e-----------------------------------------------------------------|
b--4-----4-----4---4-----4-----4---4-----4-----4---4-----4-----4--|
g--4-----4-----4---4-----4-----4---4-----4-----4---4-----4-----4--|
d--4-4-4-4-4-4-4-4-4-4-4-4-4-4-4-4-4-4-4-4-4-4-4-4-4-4-4-4-4-4-4--|
a--2-2-2-2-2-2-2-2-2-2-2-2-2-2-2-2-2-2-2-2-2-2-2-2-2-2-2-2-2-2-2--|
e-----------------------------------------------------------------|


e------------------------------------------|
b------------------------------------------|
g--9-----9-----9-----9-----9-----9-----9\--|
d--9--9--9--9--9--9--9--9--9--9--9--9--9\--|
a--7--9--7--9--7--9--7--9--7--9--7--9--7\--|
e--0--7--0--7--0--7--0--7--0--7--0--7--0---|

Then it jumps straight into the next song...


                  ----Long Live The Weekend---

Intro/Verse:

e--7-7-7-7-7--7-7-7-7-7-7--\----------------------------|
b--7-7-7-7-8--8-8-7-7-7-8--\----------------------------|
g--7-7-7-7-9--9-9-7-7-7-9--\--5--7--7-5--7-5-7-5-7b8-5--|
d--9-9-9-9-9--9-9-9-9-9-9--\--5--5--5-5--5-5-5-5-5---5--| x4
a--7-7-7-7-7--7-7-7-7-7-7--\--3--3--3-3--3-3-3-3-3---3--|
a-------------------------------------------------------|


Pre-Chorus:

e--0--0--0-0-0--2--2-2-2-2-2-2-2--0--0--0-0-0--2--2-2-2-2-2-2-2--|
b--1--1--1-1-1--3--3-3-3-3-3-3-3--0--0--0-0-0--3--3-3-3-3-3-3-3--|
g--2--2--2-2-2--2--2-2-2-2-2-2-2--0--0--0-0-0--4--4-4-4-4-4-4-4--|
d--2--2--2-2-2--0--0-0-0-0-0-0-0--2--2--2-2-2--4--4-4-4-4-4-4-4--|
a--0--0--0-0-0--------------------2--2--2-2-2--2--2-2-2-2-2-2-2--|
e---------------------------------0--0--0-0-0--------------------|


e-------------------------------|
b--5--5-5-5-5-5-5------7--7--7--|
g--5--5-5-5-5-5-5------7--7--7--|
d--5--5-5-5-5-5-5--7-7-7--7--7--|
a--3--3-3-3-3-3-3--5-5-5--6--6--|
e-------------------------------|
                   pm.


Chorus:

e--7--7--7--7-7--2-2-2--2-2-2-2------------------------------|
b--8--8--8--8-8--3-3-3--3-3-3-3------------------------------|
g--9--9--9--9-9--4-4-4--4-4-4-4---5-5-5-5-4--5-5-5-5-4--4-4--|
d--9--9--9--9-9--4-4-4--4-4-4-4---5-5-5-5-5--5-5-5-5-5--5-5--| x2
a--7--7--7--7-7--2-2-2--2-2-2-2---3-3-3-3-3--3-3-3-3-3--3-3--|
e--0--0--0--0-0----------------------------------------------|

Post Chorus:

e------------------------0------3--2--|
b--5---5---5--5---5---5--0------3--3--|
g--5---5---5--5---5---5--0------0--2--|
d--5---5---5--5---5---5--2------0--0--|
a--3---3---3--3---3---3--2------2-----|
e------------------------0------3-----|


Verse 2:

Pre-Chorus


Chorus


Post Chorus:

e------------------------3-------|
b--5---5---5--5---5---5--5-------|
g--5---5---5--5---5---5--5-------|
d--5---5---5--5---5---5--5-------|
a--3---3---3--3---3---3--3-------|
e--------------------------------|

Pre-Solo:

e--------------------------------------------------------------------|
b--------------------------------------------------------------------|
g-------------------------------------------------------------0-2/4--|
d---------------------------------------------------------0-2--------| x2
a------7-7-----7-7-----7-7-----7-7--------------------0-2------------|
e--0-0-----0-0-----0-0-----0-0------3-3-3-3-3-3-3-3-3----------------|

e------5------5------5------5------5------5------5------5--|
b------5------5------5------5------5------5------5------5--|
g------5------5------5------5------5------5------5------5--|
d--7-7-7--7-7-7--7-7-7--7-7-7--7-7-7--7-7-7--7-7-7--7-7-7--|
a--7-7-7--7-7-7--7-7-7--7-7-7--7-7-7--7-7-7--7-7-7--7-7-7--|
e--5-5-5--5-5-5--5-5-5--5-5-5--5-5-5--5-5-5--5-5-5--5-5-5--|
   pm.    ...    ...    ...    ...    ...    ...    ...


e--------------------------------------|
b--7--------5--------7--------5--------|
g--7--------5--------7--------5--------|
d--7--------5--------7--------5--------|
a--5--------3--------5--------3--------|
e--------------------------------------|

Solo: Rythym plays verse

e--0--0-0-0-0-0-0-0-0-0-0-0-0-0-0-|-0------------------------------|
b--0--0-0-0-0-0-0-0-0-0-0-0-0-0-0-|-0------------------------------|
g--3^-^-^-^-^-^-^-^-^-^-^-^-^-^-^-|-3^-2p0-------------------------|
d---------------------------------|--------2~---0-2~-0-2-0-2-0-2-0-|
a---------------------------------|--------------------------------|
e---------------------------------|--------------------------------|
   ^Keep string bent


e-------0----0------0----0----------------------------------|
b-----0----0------0----0---0-----3/5------------------------|
g--/4----2-----/4-----2----2/4---4/5--7--7-5--7-5-7-5-7b-5--|
d-------------------------------------5--5-5--5-5-5-5-5--5--|
a-------------------------------------3--3-3--3-3-3-3-3--3--|
e-----------------------------------------------------------|

Pre-Chorus: Lead bit over pre chorus

e------------------------------------------------------------|
b--5-------7-7-----------------3-3--0-0--1-1-------3-3--4-4--|
g-----7-7-------5-5--4-4--0-0-----------------0-0------------|
d------------------------------------------------------------|
a------------------------------------------------------------|
e------------------------------------------------------------|


Chorus


Outro:

e--3--2-2--0-0--2-2-------------------------------------|
b--3--3-3--0-0--3-3----5-5-5-5-5-5-5-5-5-5-5-5-5-5-5-5--|
g--4--2-2--0-0--4-4----5-5-5-5-5-5-5-5-5-5-5-5-5-5-5-5--|
d--5--0-0--2-2--4-4----5-5-5-5-5-5-5-5-5-5-5-5-5-5-5-5--|
a----------------------3-3-3-3-3-3-3-3-3-3-3-3-3-3-3-3--|
e-------------------------------------------------------|


e--3----0----2---------3--------3----|
b--3----3----3----5----3--------3----|
g--0----2----4----5----4--------4----|
d--0----0----4----5----5--------5----|
a--2---------2----3----5--------5----|
e--3-------------------3--------3----|

                          ----No Way Out----

Intro/Verse:

e---------------------------------------------------------------------|
b------4-------4-------4-------4-------3-------3-------3-------3------|
g----1---1---1---1---1---1---1---1---3---3---3---3---3---3---3---3----|
d--3-------3-------3-------3-------3-------3-------3-------3----------|
a---------------------------------------------------------------------|
e---------------------------------------------------------------------|
Just repeat this as many times as u need too!


Chorus:

e--------------------------------------------------------------------------------------|
b---------------------------------------------------6-6-6-6-6-6-6-6-6-6-6-6-6-6-6-6----|
g--10-10-10-10-10-10-10-10-10-10-10-10-10-10-10-10--6-6-6-6-6-6-6-6-6-6-6-6-6-6-6-6----|
d--8--8--8--8--8--8--8--8--8--8--8--8--8--8--8--8---8-8-8-8-8-8-8-8-8-8-8-8-8-8-8-8----| x2
a--8--8--8--8--8--8--8--8--8--8--8--8--8--8--8--8---8-8-8-8-8-8-8-8-8-8-8-8-8-8-8-8----|
e--6--6--6--6--6--6--6--6--6--6--6--6--6--6--6--6---6-6-6-6-6-6-6-6-6-6-6-6-6-6-6-6----|

e-------------------------------------|
b--6-6-6-6-6-6-6-6-6-6-6-6-6-6-6-6----|
g--6-6-6-6-6-6-6-6-6-6-6-6-6-6-6-6----|
d--8-8-8-8-8-8-8-8-8-8-8-8-8-8-8-8----|
a--9-9-9-9-9-9-9-9-9-9-9-9-9-9-9-9----|
e--6-6-6-6-6-6-6-6-6-6-6-6-6-6-6-6----|


Verse

Chorus

Bridge:

e--------------------------------------------------------------------|
b--------------------------------------------------------------------|
g-----------------------------------8-8-8-8-8-8-8-8-8-8-8-8-8-8-8-8--|
d--8-8-8-8-8-8-8-8-8-8-8-8-8-8-8-8--8-8-8-8-8-8-8-8-8-8-8-8-8-8-8-8--| x2
a--8-8-8-8-8-8-8-8-8-8-8-8-8-8-8-8--6-6-6-6-6-6-6-6-6-6-6-6-6-6-6-6--|
e--6-6-6-6-6-6-6-6-6-6-6-6-6-6-6-6-----------------------------------|
"Will we ever get back home"

e----------------------------------------|
b----------------------------------------|
g----------------------------------------|
d--4-4-4-4-4-4-4-4-4-4-4-4-4-4--6-6-6----|
a--4-4-4-4-4-4-4-4-4-4-4-4-4-4--6-6-6----|
e--2-2-2-2-2-2-2-2-2-2-2-2-2-2--4-4-4----|

e--------------------------------------------------------------------|
b--------------------------------------------------------------------|
g-----------------------------------8-8-8-8-8-8-8-8-8-8-8-8-8-8-8-8--|
d--8-8-8-8-8-8-8-8-8-8-8-8-8-8-8-8--8-8-8-8-8-8-8-8-8-8-8-8-8-8-8-8--| x2
a--8-8-8-8-8-8-8-8-8-8-8-8-8-8-8-8--6-6-6-6-6-6-6-6-6-6-6-6-6-6-6-6--|
e--6-6-6-6-6-6-6-6-6-6-6-6-6-6-6-6-----------------------------------|
"I cant see the way out"

e--2-2-2-2-2-2-2-2-2-2-2-2-2-2-2-2-2--2-2-2-2-2-2-2-2-2-2-2-2-2-2-2-2----|
b--2-2-2-2-2-2-2-2-2-2-2-2-2-2-2-2-2--2-2-2-2-2-2-2-2-2-2-2-2-2-2-2-2----|
g--3-3-3-3-3-3-3-3-3-3-3-3-3-3-3-3-3--2-2-2-2-2-2-2-2-2-2-2-2-2-2-2-2----|
d--4-4-4-4-4-4-4-4-4-4-4-4-4-4-4-4-4--4-4-4-4-4-4-4-4-4-4-4-4-4-4-4-4----|
a--4-4-4-4-4-4-4-4-4-4-4-4-4-4-4-4-4--4-4-4-4-4-4-4-4-4-4-4-4-4-4-4-4----|
e--2-2-2-2-2-2-2-2-2-2-2-2-2-2-2-2-2--2-2-2-2-2-2-2-2-2-2-2-2-2-2-2-2----|


Outro:
e--2-2-2-2-2-2-2-2-2-2-2-2-2-2-2-2-2--2-2-2-2-2-2-2-2-2-2-2-2-2-2-2-2----|
b--2-2-2-2-2-2-2-2-2-2-2-2-2-2-2-2-2--2-2-2-2-2-2-2-2-2-2-2-2-2-2-2-2----|
g--3-3-3-3-3-3-3-3-3-3-3-3-3-3-3-3-3--2-2-2-2-2-2-2-2-2-2-2-2-2-2-2-2----|
d--4-4-4-4-4-4-4-4-4-4-4-4-4-4-4-4-4--4-4-4-4-4-4-4-4-4-4-4-4-4-4-4-4----|
a--4-4-4-4-4-4-4-4-4-4-4-4-4-4-4-4-4--4-4-4-4-4-4-4-4-4-4-4-4-4-4-4-4----|
e--2-2-2-2-2-2-2-2-2-2-2-2-2-2-2-2-2--2-2-2-2-2-2-2-2-2-2-2-2-2-2-2-2----|


                              ----We Want More----

Intro:

e----------------------------------------------------------|
b--2-2-2--2-2-2--2-2-2--2-2-2--2-2-2--2-2-2--2-2-2--2-2-2--|
g--4-4-4--4-4-4--4-4-4--4-4-4--4-4-4--4-4-4--4-4-4--4-4-4--|
d--3-3-3--3-3-3--3-3-3--3-3-3--3-3-3--3-3-3--3-3-3--3-3-3--|
a--4-4-4--4-4-4--4-4-4--4-4-4--4-4-4--4-4-4--4-4-4--4-4-4--|
e----------------------------------------------------------|

Verse:

e-----------------------------------------|---------------------------------|
b-----------------------------------------|---------------------------------|
g------------------7--7--7--7-7-----------|---------------------------------|
d--4--4--4----4----7--7--7--7-7--0--(x3)--|--4--4-4--2--2-2--4--4--4---4----|
a--4--4--4----4----5--5--5--5-5--0--------|--4--4-4--2--2-2--4--4--4---4----|
e--2--2--2p0--2p0----------------0--------|--2--2-2--0--0-0--2--2--2p0-2p0--|

Pre Chorus:

e--------------------------------------------------------|
b--------------------------------------------------------|
g--4--4--4-4--2--4--4--4-4--6--7--7--7-7--7--9--9--9--9--|
d--4--4--4-4--2--4--4--4-4--6--7--7--7-7--7--9--9--9--9--|
a--2--2--2-2--0--2--2--2-2--4--5--5--5-5--5--7--7--7--7--|
e--------------------------------------------0--0--0--0--|

Chorus:

e--2--2--2--------------------------|--2--2--2--2--4--4--4--4--------------------------------------------|
b--2--2--2--------------------------|--2--2--2--2--5--5--5--5--------------------------------------------|
g--2--2--2-----7--7--7--7-----------|--2--2--2--2--6--6--6--6--6/7-7-7--7-6/7-7-7--7-6/7-7-7--7-6/7-7-7--|
d--4--4--4--7--7--7--7--7--0--------|--4--4--4--4--6--6--6--6--x-x-x-x--x-x-x-x-x--x-x-x-x-x--x-x-x-x-x--|
a--4--4--4--7--5--5--5--5--0--(x2)--|--4--4--4--4--4--4--4--4--4/5-5-5--5-4/5-5-5--5-4/5-5-5--5-4/5-5-5--|
e--2--2--2--5--------------0--------|--2--2--2--2--------------------------------------------------------|


e--2--2--2--2--4--4--4--4------------------------------------------------------------------|
b--3--3--3--3--5--5--5--5--7--7--7--7--5------5------2--2----------------------------------|
g--4--4--4--4--6--6--6--6--7--7--7--7--6------6------4--4----------------------------------|
d--4--4--4--4--6--6--6--6--7--7--7--7--6------6------3--3--4--4--4----4----4--4--4----4----|
a--2--2--2--2--4--4--4--4--5--5--5--5--4------4------4--4--4--4--4----4----4--4--4----4----|
e----------------------------------------------------------2--2--2p0--2p0--2--2--2p0--2p0--|


Verse:

e-----------------------------------------|---------------------------------|
b-----------------------------------------|---------------------------------|
g------------------7--7--7--7-7-----------|---------------------------------|
d--4--4--4----4----7--7--7--7-7--0--(x3)--|--4--4-4--2--2-2--4--4--4---4----|
a--4--4--4----4----5--5--5--5-5--0--------|--4--4-4--2--2-2--4--4--4---4----|
e--2--2--2p0--2p0----------------0--------|--2--2-2--0--0-0--2--2--2p0-2p0--|

Chorus:

e--2--2--2--------------------------|--2--2--2--2--4--4--4--4--------------------------------------------|
b--2--2--2--------------------------|--2--2--2--2--5--5--5--5--------------------------------------------|
g--2--2--2-----7--7--7--7-----------|--2--2--2--2--6--6--6--6--6/7-7-7--7-6/7-7-7--7-6/7-7-7--7-6/7-7-7--|
d--4--4--4--7--7--7--7--7--0--------|--4--4--4--4--6--6--6--6--x-x-x-x--x-x-x-x-x--x-x-x-x-x--x-x-x-x-x--|
a--4--4--4--7--5--5--5--5--0--(x2)--|--4--4--4--4--4--4--4--4--4/5-5-5--5-4/5-5-5--5-4/5-5-5--5-4/5-5-5--|
e--2--2--2--5--------------0--------|--2--2--2--2--------------------------------------------------------|

Solo:

e--14--14--x-x-x-x-x--14--14--x-x-x-x-x--|--13/14-14-14-14-14--------|
b--14--14--x-x-x-x-x--14--14--x-x-x-x-x--|--13/14-14-14-14-14--------|
g--14--14--x-x-x-x-x--14--14--x-x-x-x-x--|--13/14-14-14-14-14--(x6)--|
d--16--16--x-x-x-x-x--16--16--x-x-x-x-x--|---------------------------|
a----------------------------------------|---------------------------|
e----------------------------------------|---------------------------|


e---------------------------------------------------------------------------------------------------------------------------------|
b---------------------------------------------------------------------------------------------------------------------------------|
g--11------11---11-11-11-11-11-11-11----------------11---------11---------11---------11---------11---------11---------11----------|
d---9^^v-7--9^^-^^-^^-^^-^^-^^-^^--9^^v-7~--9h10h11----9h10h11----9h10h11----9h10h11----9h10h11----9h10h11----9h10h11----9h10h11--|
a---------------------------------------------------------------------------------------------------------------------------------|
e---------------------------------------------------------------------------------------------------------------------------------|
                 ^^Hold bend

e----5p2-5b----5p2-5b----5p2-5b----5p2-5b----5-----5-----5-----5-----8------11------14-----------|
b--2-4p2-4b--2-4p2-4b--2-4p2-4b--2-4p2-4b------7p4---7p4---7p4---7p4---10p7----10p7----14p12-----|
g--------------------------------------------------------------------------------------------11--|
d------------------------------------------------------------------------------------------------|
a------------------------------------------------------------------------------------------------|
e------------------------------------------------------------------------------------------------|


e-----------------------------------------------------------------------------------------|
b-----------------------------------------------------------------------------------------|
g--7-7-7-7-7-7--9-9-9-9-9-9-11-11-11-11-11-11--13-13-13-13-13-13--14-14-14-14-14-14-------|
d--x-x-x-x-x-x--x-x-x-x-x-x--x--x--x--x--x--x---x--x--x--x--x--x---x--x--x--x--x--x-------|
a--5-5-5-5-5-5--7-7-7-7-7-7--9--9--9--9--9--9--11-11-11-11-11-11--12-12-12-12-12-12--etc--|
e-----------------------------------------------------------------------------------------|


e-------------------------------------------------------------------------------------------------------------------|
b--------------------------------------12--12--12--14--14--14--15--15--15--17--17--17--18--18--18--18--18--18-------|
g--11--11--11--11--13--13--14--14--14---x---x---x---x---x---x---x---x---x---x---x---x---x---x---x---x---x---x-------|
d---x---x---x---x---x---x---x---x---x---9---9---9--11--11--11--12--12--12--14--14--14--15--15--15--15--15--15--etc--|
a---9---9---9--11--11--11--12--12--12-------------------------------------------------------------------------------|
e-------------------------------------------------------------------------------------------------------------------|


Verse:

e-----------------------------------------|---------------------------------|
b-----------------------------------------|---------------------------------|
g------------------7--7--7--7-7-----------|---------------------------------|
d--4--4--4----4----7--7--7--7-7--0--(x3)--|--4--4-4--2--2-2--4--4--4---4----|
a--4--4--4----4----5--5--5--5-5--0--------|--4--4-4--2--2-2--4--4--4---4----|
e--2--2--2p0--2p0----------------0--------|--2--2-2--0--0-0--2--2--2p0-2p0--|

Pre Chorus:

e--------------------------------------------------------|
b--------------------------------------------------------|
g--4--4--4-4--2--4--4--4-4--6--7--7--7-7--7--9--9--9--9--|
d--4--4--4-4--2--4--4--4-4--6--7--7--7-7--7--9--9--9--9--|
a--2--2--2-2--0--2--2--2-2--4--5--5--5-5--5--7--7--7--7--|
e--------------------------------------------0--0--0--0--|

Chorus:

e--2--2--2--------------------------|--2--2--2--2--4--4--4--4--------------------------------------------|
b--2--2--2--------------------------|--2--2--2--2--5--5--5--5--------------------------------------------|
g--2--2--2-----7--7--7--7-----------|--2--2--2--2--6--6--6--6--6/7-7-7--7-6/7-7-7--7-6/7-7-7--7-6/7-7-7--|
d--4--4--4--7--7--7--7--7--0--------|--4--4--4--4--6--6--6--6--x-x-x-x--x-x-x-x-x--x-x-x-x-x--x-x-x-x-x--|
a--4--4--4--7--5--5--5--5--0--(x2)--|--4--4--4--4--4--4--4--4--4/5-5-5--5-4/5-5-5--5-4/5-5-5--5-4/5-5-5--|
e--2--2--2--5--------------0--------|--2--2--2--2--------------------------------------------------------|

Outro:

e---------------------------|
b--5------5------2--2-------|
g--6------6------4--4-------|
d--6------6------3--3--4----|
a--4------4------4--4--4----|
e----------------------2----|


                                 ----Wake Up---


Intro/Verse:

|---------------------------------------------------------------------------|
|---------------------------------------------------------------------------|
|-----4---2----------0---------------4---2-----------2----------------------|
|---0-------4------2-----4-2-------0-------4-------2-----2-4----------------|
|-2-----2------------------------2-----2------------------------------------|
|----------------0-----0-------------------------0-----0--------------------|

|--------------------------------------------------------------------|
|--------------------------------------------------------------------|
|-----4---2----------2--------------4---2----------------------------|
|---0-------4------2-----5-0-----0--------2-4---{x4}----4444444------|
|-2-----2----------------------2------2-----------------4444444------|
|----------------0-----0--------------------------------2222222------|


Chorus:

      B         D        A       F#                B
e|------------------------------------------------------------------------|
B|------------------------------------------------------------------------|
G|-44444444-77777777------------------------4444444444444444--------------|
D|-44444444-77777777-77777777-44444444-(x2)-4444444444444444--------------|
A|-22222222-55555555-77777777-44444444------2222222222222222--------------|
E|-------------------55555555-22222222------------------------------------|

Keep on Playing "B" Till Next Verse Begings

Second Verse:

      B        E        B        A        B        G
e|----------------------------------------------------------------------|
B|----------------------------------------------------------------------|
G|-44444444----------44444444-22222222-44444444-------------------------|
D|-44444444-22222222-44444444-22222222-44444444-55555555----{x2}--------|
A|-22222222-22222222-22222222-00000000-22222222-55555555----------------|
E|----------00000000----------------------------33333333----------------|

                                               {Palm Muted}^
         F#
e|---------------------------------------------------------|
B|---------------------------------------------------------|
G|---------------------------------------------------------|
D|-4444444444444444----------------------------------------|
A|-4444444444444444----------------------------------------|
E|-2222222222222222----------------------------------------|


Chorus:

      B        D        A        F#               B
e|---------------------------------------------------------------|
B|---------------------------------------------------------------|
G|-44444444-77777777---------------------------44444444----------|
D|-44444444-77777777-77777777-44444444---{x2}--44444444----------|
A|-22222222-55555555-77777777-44444444---------22222222----------|
E|-------------------55555555-22222222---------------------------|


Bridge:

     B
e|----------------------------|
B|----------------------------|
G|-4--x-x-x-x-x-x-------------|
D|-4--x-x-x-x-x-x----{x6}-----|
A|-2--x-x-x-x-x-x-------------|
E|----------------------------|


      B        G        A        F#
e|--------------------------------------------------------------|
B|--------------------------------------------------------------|
G|-44444444-----------------------------------------------------|
D|-44444444-55555555-77777777-44444444--------------------------|
A|-22222222-55555555-77777777-44444444--------------------------|
E|----------33333333-55555555-22222222--------------------------|

          B                F#
e|-------------------------------------------|
B|-------------------------------------------|
G|-4444444444444444--------------------------|
D|-4444444444444444-4444444444444444---------|
A|-2222222222222222-4444444444444444---------|
E|------------------2222222222222222---------|

Intro/Verse:

|---------------------------------------------------------------------------|
|---------------------------------------------------------------------------|
|-----4---2----------0---------------4---2-----------2----------------------|
|---0-------4------2-----4-2-------0-------4-------2-----2-4----------------|
|-2-----2------------------------2-----2------------------------------------|
|----------------0-----0-------------------------0-----0--------------------|

|-------------------------------------------------------------|
|-------------------------------------------------------------|
|-----4---2----------2--------------4---2---------------------|
|---0-------4------2-----5-0-----0--------2-4---{x2}----------|
|-2-----2----------------------2------2-----------------------|
|----------------0-----0--------------------------------------|

Then the pard where the kids are singin':

e|-------2--------0-3----------2----------0--------|
B|-----3---------(5)---------3----------2----------|
G|-4-4--------4-4--------4-4--------3-3------------|
D|------------------------------------------(x4)---|
A|-------------------------------------------------|
E|-------------------------------------------------|


End On:

|---|
|---|
|-4-|
|-4-|
|-2-|
|---|

                                     -----What’s On Your Radio?---

Intro: Slight delay effect

e---12-12-12---12-12-12---12-12-12---12---12--12-12-12---12---|
b---x--x--x----x--x--x----x--x--x----x----x---x--x--x----x----|
g---9--9--9----9--9--9----9--9--9----9----9---9--9--9----9----|
d-------------------------------------------------------------| x3
a-------------------------------------------------------------|
e-------------------------------------------------------------|

Pre Verse:

e----------------------------|
b----------------------------|
g--9----------9---5--4--7----|
d--9----------9---5--4--7----|
a--7--7-7-7-7-7---3--2--5----|
e--0--0-0-0-0-0--------------|
      pm.....

Verse: Sounds like he's doing this on the track, but live he just
       plays a normal E barre chord. Do what you want.

e--12---------12----------------|
b--x----------x-----------------|
g--9----------9-----------------|
d--9--9-9-9-9-9--9-9-9-9-9-9----| Repeat as needed
a-------------------------------|
e-------------------------------|
      pm.....    ...........
"What's your problem,
what's on your mind..."

Pre Chorus:

e--------------------------------------|
b--------------------4---4--4--4--4----|
g--4----2-4----2-4---4---4--4--4--4----|
d--4----2-4----2-4---4---4--4--4--4----|
a--2----0-2----0-2---2---2--2--2--2----|
e--------------------------------------|
"You've got your problems,
well I've got mine..."

Chorus:

e--7----------7--------------------|-----|
b--8----------8--------------------|--7--|
g--9----------9--------------------|--7--|
d--9----------9---------------(x3)-|--7--|
a--7--7-7-7-7-7--7-7-7-7-7-7-------|--5--|
e--0--0-0-0-0-0--0-0-0-0-0-0-------|-----|
      pm.....    ...........
"What's on your radio..."


e--7----------7--------------------|-----------5------------3-2--3----------------------|
b--8----------8--------------------|--7----7-----7--------5--------5--------------------|
g--9----------9--------------------|--7--7---7-----7----5-------------5--5--5--5--5--5--|
d--9----------9---------------(x3)-|--7--------------7--5-------------7--7--7--7--7--7--|
a--7--7-7-7-7-7--7-7-7-7-7-7-------|--5-----------------3-------------7--7--7--7--7--7--|
e--0--0-0-0-0-0--0-0-0-0-0-0-------|----------------------------------5--5--5--5--5--5--|
      pm.....    ...........


Pre Verse

Verse

Pre Chorus

Chorus

Solo: Rythym plays Am, E


Fast, with Delay effect

e--------0-------0-------0---------0--------0---------0----------0----------0--|
b--5h6h7---6h7h8---7h8h9---9h10h11---8h9h11---9h11h12---10h11h12---11h12h13----|
g------------------------------------------------------------------------------|
d------------------------------------------------------------------------------|
a------------------------------------------------------------------------------|
e------------------------------------------------------------------------------|

e--12-12-10-12-12-12-10-12-12-12-10-12-12-12-10--/12-12-12-12---------------------------------------/--|
b--13-13-12-13-13-13-12-13-13-13-12-13-13-13-12---------------12-12-12-12---------------------------/--|
g-------------------------------------------------------------------------9-9-9-9-------------------/--|
d---------------------------------------------------------------------------------8-8-8-8-9-9-9-9\--/--|
a---------------------------------------------------------------------------------------------------/--|
e---------------------------------------------------------------------------------------------------/--|

e--------------------------10------10------10--10-12--------10---------------------|
b--------------------------12p0----12p0----12--12/13--11h12----12~-12\------8------|
g----7-----7-----7---9~---------12------12------------------------------7h9---9~\--|
d----9p0---9p0---9--10~------------------------------------------------------------|
a--0-----0-----0-------------------------------------------------------------------|
e----------------------------------------------------------------------------------|
  pm   ...   ...

e-----------------------------------------------------------------------------11---|
b--12h13p12----------------12--------------------------13-12~--------------13-12---|
g--11-------14p12p11----------14p12p11-----------11h12---------------11h12---------|
d--------------------14p12-------------14p12-/13-----------------/13---------------|
a----------------------------------------------------------------------------------|
e----------------------------------------------------------------------------------|

e---------------11-----------------11--12--13--14--16b~----|
b------------13-12--------------13-12--13--14--15--17b~----|
g------11h12--------------11h12----------------------------|
d--/13----------------/13----------------------------------|
a----------------------------------------------------------|
e----------------------------------------------------------|


Bridge is basically Pre Verse and Chorus.
You have everything you need up there.


Finish on:

e-----------------------------|
b-----------------------------|
g--9----------9---5--4--7-----|
d--9----------9---5--4--7--2--|
a--7--7-7-7-7-7---3--2--5--2--|
e--0--0-0-0-0-0------------0--|
      pm.....

                        ----Nothing Last Forever----


Intro:

Rythym
e--3-------------------------------2----------------------------------|
b--3-----3-----3---3-----3-----3---3-----3-----3---3-----3-----3------|
g--0-0-0-0-0-0-0-0-0-0-0-0-0-0-0-0-0-0-0-0-0-0-0-0-0-0-0-0-0-0-0-0----|
d--5-5-5-5-5-5-5-5-5-5-5-5-5-5-5-5-5-5-5-5-5-5-5-5-5-5-5-5-5-5-5-5----|
a---------------------------------------------------------------------|
e---------------------------------------------------------------------|
Lead
e---------------------------10-------------------------------10-------|
b------------------------------10/12~---------------------------12----|
g---------------------------------------------------------------------|
d---------------------------------------------------------------------|
a---------------------------------------------------------------------|
e---------------------------------------------------------------------|


Rythym
e--2-------------------------------2----------------------------------|
b--3-----3-----3---3-----3-----3---3-----3-----3---3-----3-----3------|
g--2-2-2-2-2-2-2-2-2-2-2-2-2-2-2-2-2-2-2-2-2-2-2-2-2-2-2-2-2-2-2-2----|
d--0-0-0-0-0-0-0-0-0-0-0-0-0-0-0-0-0-0-0-0-0-0-0-0-0-0-0-0-0-0-0-0----|
a---------------------------------------------------------------------|
e---------------------------------------------------------------------|
Lead
e---------------------------10----10-------------------------10-------|
b--12-10~----------------------10-12-10-------------------------10----|
g---------------------------------------------------------------------|
d---------------------------------------------------------------------|
a---------------------------------------------------------------------|
e---------------------------------------------------------------------|


Rythym
e--3-------------------------------2----------------------------------|
b--3-----3-----3---3-----3-----3---3-----3-----3---3-----3-----3------|
g--0-0-0-0-0-0-0-0-0-0-0-0-0-0-0-0-0-0-0-0-0-0-0-0-0-0-0-0-0-0-0-0----|
d--5-5-5-5-5-5-5-5-5-5-5-5-5-5-5-5-5-5-5-5-5-5-5-5-5-5-5-5-5-5-5-5----|
a---------------------------------------------------------------------|
e---------------------------------------------------------------------|
Lead
e---------------------------10---------------------------------5------|
b--12~--------------------------10/12~---------------------------7----|
g---------------------------------------------------------------------|
d---------------------------------------------------------------------|
a---------------------------------------------------------------------|
e---------------------------------------------------------------------|


Rythym
e--0------------------------------------------------------------------|
b--0-------------------------------0-----0-----0-0-3-3-3-3-3-3-3-3----|
g--2-2-2-2-2-2-2-2-2-2-2-2-2-2-2-2-2-2-2-2-2-2-2-2-2-2-2-2-2-2-2-2----|
d--2-2-2-2-2-2-2-2-2-2-2-2-2-2-2-2-2-2-2-2-2-2-2-2-2-2-2-2-2-2-2-2----|
a--0-0-0-0-0-0-0-0-0-0-0-0-0-0-0-0-0-0-0-0-0-0-0-0-0-0-0-0-0-0-0-0----|
e---------------------------------------------------------------------|
Lead
e---------------------------------------------------------------------|
b--7--5~--------------------------------------------------------------|
g---------------------------------------------------------------------|
d---------------------------------------------------------------------|
a---------------------------------------------------------------------|
e---------------------------------------------------------------------|

Verse:

e-----------------------------------|
b-----------------------------------|
g-----------------------------------|
d--4---4---4---4-2-4-2-0---2---2----| Repeat as necesary
a--5-5-5-5-5-5-5-5-5-5-5-5-5-5-5-5--|
e-----------------------------------|
   pm.............................

Halfway through the verse, a second guitar comes in:

e-----------------------------------|
b--3---3---3---3-2-0---0---2---2----|
g--2-2-2-2-2-2-2-2-2-2-2-2-2-2-2-2--|
d-----------------------------------| Repeat as necesary
a-----------------------------------|
e-----------------------------------|
   pm.............................

Pre Chorus:

e---------------------------------------------------------------------|
b--0-------------------------------0----------------------------------|
g--0-0-0-0-0-0-0-0-0-0-0-0-0-0-0-0-0-0-0-0-0-0-0-0-0-0-0-0-0-0-0-0----|
d--2-2-2-2-2-2-2-2-2-2-2-2-2-2-2-2-2-2-2-2-2-2-2-2-2-2-2-2-2-2-2-2----|
a--0-0-0-0-0-0-0-0-0-0-0-0-0-0-0-0-0-0-0-0-0-0-0-0-0-0-0-0-0-0-0-0----|
e---------------------------------------------------------------------|

Chorus:

Rythym
e--3-------------------------------2----------------------------------|
b--3-3-3-3-3-3-3-3-3-3-3-3-3-3-3-3-3-3-3-3-3-3-3-3-3-3-3-3-3-3-3-3----|
g--0-0-0-0-0-0-0-0-0-0-0-0-0-0-0-0-0-0-0-0-0-0-0-0-0-0-0-0-0-0-0-0----|
d--5-5-5-5-5-5-5-5-5-5-5-5-5-5-5-5-5-5-5-5-5-5-5-5-5-5-5-5-5-5-5-5----|
a---------------------------------------------------------------------|
e---------------------------------------------------------------------|
Lead
e---------------------------10-------------------------------10-------|
b-/12~-------------------------10/12~---------------------------12----|
g---------------------------------------------------------------------|
d---------------------------------------------------------------------|
a---------------------------------------------------------------------|
e---------------------------------------------------------------------|


Rythym
e--2-------------------------------2----------------------------------|
b--3-3-3-3-3-3-3-3-3-3-3-3-3-3-3-3-3-3-3-3-3-3-3-3-3-3-3-3-3-3-3-3----|
g--2-2-2-2-2-2-2-2-2-2-2-2-2-2-2-2-2-2-2-2-2-2-2-2-2-2-2-2-2-2-2-2----|
d--0-0-0-0-0-0-0-0-0-0-0-0-0-0-0-0-0-0-0-0-0-0-0-0-0-0-0-0-0-0-0-0----|
a---------------------------------------------------------------------|
e---------------------------------------------------------------------|
Lead
e----------------------------10------------------------------10-------|
b--10~--------------------------12-10---------------------------10----|
g---------------------------------------------------------------------|
d---------------------------------------------------------------------|
a---------------------------------------------------------------------|
e---------------------------------------------------------------------|


Rythym
e--3-------------------------------2----------------------------------|
b--3-3-3-3-3-3-3-3-3-3-3-3-3-3-3-3-3-3-3-3-3-3-3-3-3-3-3-3-3-3-3-3----|
g--0-0-0-0-0-0-0-0-0-0-0-0-0-0-0-0-0-0-0-0-0-0-0-0-0-0-0-0-0-0-0-0----|
d--5-5-5-5-5-5-5-5-5-5-5-5-5-5-5-5-5-5-5-5-5-5-5-5-5-5-5-5-5-5-5-5----|
a---------------------------------------------------------------------|
e---------------------------------------------------------------------|
Lead
e---------------------------10-------------------------------10-------|
b-/12~-------------------------10/12~---------------------------12----|
g---------------------------------------------------------------------|
d---------------------------------------------------------------------|
a---------------------------------------------------------------------|
e---------------------------------------------------------------------|


Rythym
                                   Bm
e--2-------------------------------2----------------------------------|
b--3-3-3-3-3-3-3-3-3-3-3-3-3-3-3-3-3-3-3-3-3-3-3-3-3-3-3-3-3-3-3-3----|
g--2-2-2-2-2-2-2-2-2-2-2-2-2-2-2-2-4-4-4-4-4-4-4-4-4-4-4-4-4-4-4-4----|
d--0-0-0-0-0-0-0-0-0-0-0-0-0-0-0-0-4-4-4-4-4-4-4-4-4-4-4-4-4-4-4-4----|
a----------------------------------2-2-2-2-2-2-2-2-2-2-2-2-2-2-2-2----|
e---------------------------------------------------------------------|
Lead
e----------------------------10/12/14~--------------------------12----|
b--10~----------------------------------------------------------------|
g---------------------------------------------------------------------|
d---------------------------------------------------------------------|
a---------------------------------------------------------------------|
e---------------------------------------------------------------------|


Rythym
   G                               A
e--3-3-3-3-3-3-3-3-3-3-3-3-3-3-3-3------------------------------------|
b--3-3-3-3-3-3-3-3-3-3-3-3-3-3-3-3-0-0-0-0-0-0-0-0-0-0-0-0-0-0-0-0----|
g--0-0-0-0-0-0-0-0-0-0-0-0-0-0-0-0-2-2-2-2-2-2-2-2-2-2-2-2-2-2-2-2----|
d--0-0-0-0-0-0-0-0-0-0-0-0-0-0-0-0-2-2-2-2-2-2-2-2-2-2-2-2-2-2-2-2----|
a--2-2-2-2-2-2-2-2-2-2-2-2-2-2-2-2-0-0-0-0-0-0-0-0-0-0-0-0-0-0-0-0----|
e--3-3-3-3-3-3-3-3-3-3-3-3-3-3-3-3------------------------------------|
Lead
e-/14~--------------------------10\5~---------------------------------|
b---------------------------------------------------------------------|
g---------------------------------------------------------------------|
d---------------------------------------------------------------------|
a---------------------------------------------------------------------|
e---------------------------------------------------------------------|


Verse

Pre Chorus

Chorus

Bridge:

e-----------------------------------6--6----------8--10--8--10----|
b--10-10-10----------10----10-10----6-----10--8---8---------------|
g--10-10-10----10-10--9-----9--9----7-------------9---------------|
d--10-10-10----10-10-10----10-10----8------------10---------------| x2
a--8--8--8------8--8--8-----8--8----8------------10---------------|
e-----------------------------------6-------------8---------------|


e--10-----10-----10---10-10-----10-----10---10---10-10----|
b--7------7------7----7--7------7------7----7----7--7-----|
g--7--7-7-7--7-7-7--7-7--7--7-7-7--7-7-7--7-7--7-7--7-----|
d--7--7-7-7--7-7-7--7-7--7--7-7-7--7-7-7--7-7--7-7--7-----| x2
a--5--5-5-5--5-5-5--5-5--5--5-5-5--5-5-5--5-5--5-5--5-----|
e---------------------------------------------------------|


e-------10----------7--------9-----------|-------10-----------------------|
b----10-----10----8---8---10---10--------|----10-----10-------------------|
g---------------7-------9----------------|---------------4-4-4-4-6-6-6-6--|
d----------------------------------(x3)--|---------------5-5-5-5-7-7-7-7--|
a----------------------------------------|---------------5-5-5-5-7-7-7-7--|
e----------------------------------------|---------------3-3-3-3-5-5-5-5--|


e-----------------------------------------|--------------------|
b--7-7-7-7-7-7-7-7------------------------|--0--------0--------|
g--7-7-7-7-7-7-7-7-4-4-4-4-6-6-6-6--------|--0--------0--------|
d--7-7-7-7-7-7-7-7-5-5-5-5-7-7-7-7--(x4)--|--2--------2--------|
a--5-5-5-5-5-5-5-5-5-5-5-5-7-7-7-7--------|--0--------0--------|
e------------------3-3-3-3-5-5-5-5--------|--------------------|


Chorus

Outro:

Bm, G, A x2


Ending:

e---------2-0-----------2-0--------------|-----|
b--3----3--------3----3---------3--------|--3--|
g--2--2--------2----2---------2----------|--2--|
d--0------------------------0------(x2)--|--0--|
a----------------------------------------|-----|
e----------------------------------------|-----|

                              -----Order Of The Day-----
                                 Tabbed by mucho-mum

(DRUMS INTRO)

Intro:

E-2---------------0-------------------2--------------------|
B-2---------------0-------------------2--------------------|
G-2---------------1-------------------2--------------------|
D-4---------------2-------------------4--------------------|
A-4---------------2-------------------4--------------------|
E-2---------------0-------------------2--------------------|

E-2-------0-------------------------------------|
B-2-------2-------------------------------------|
G-0-------2-----4-------------------------------|
D-0-------2-----4-4-4-4-4-4-4-4-4-4-4-4-4-4-4-4-|
A-2-------0-----2-2-2-2-2-2-2-2-2-2-2-2-2-2-2-2-|
E-3---------------------------------------------|


Verse:
The first part of this verse starts off with just this:

E-------------------------------------|
B-------------------------------------|
G-4-----------------------------------|
D-4-4-4-4-4-4-4-4-4-4-4-4-4-4-4-4-----|
A-2-2-2-2-2-2-2-2-2-2-2-2-2-2-2-2-----|
E-------------------------------------|

Then it goes into...

Guitar 1:

E--------------------------------------------------------------|
B--------------------------------------------------------------|
G--6-----4------------6------4---------------6------4----------|
D------------4----------------------4--------------------4-----|
A--------------------------------------------------------------|
E--------------------------------------------------------------|

Guitar 2:

E---------------------------------------------------------------|
B---------------------------------------------------------------|
G-4-----------------------------------7-------------------------|
D-4-4-4-4-4-4-4-4-4-4-4-4-4-4-4-4-----7-7-7-7-7-7-7-7-7-7-7-7-7-|
A-2-2-2-2-2-2-2-2-2-2-2-2-2-2-2-2-----5-5-5-5-5-5-5-5-5-5-5-5-5-|
E---------------------------------------------------------------|
And repeat this until the chorus

Chorus:

E--------------------------------------------------|
B--------------------------------------------------|
G------------------------------9-9-9-9-9-9-9-9-9-9-|
D--4-4-4-4-4-4-4-4-4-4-4-4-----9-9-9-9-9-9-9-9-9-9-|
A--4-4-4-4-4-4-4-4-4-4-4-4-----7-7-7-7-7-7-7-7-7-7-|
E--2-2-2-2-2-2-2-2-2-2-2-2-----0-0-0-0-0-0-0-0-0-0-|


E------------------------------------------------------------|
B------------------------------------------------------------|
G------------------------------------------2-----------------|
D--4-4-4-4-4-4-4-4------5----------------------4---2---------|
A--4-4-4-4-4-4-4-4----------5-----2-----0----------------0---|
E--2-2-2-2-2-2-2-2----3-------------3------------------------|

Verse x 1

Chorus x 1

Then this weird little part which goes like this:
F.Y.I This part is quite hard so don't feel crap if u can't play it!

E-2--2--2--2--2-----------------------------------|
B--3--3--3--3--3--3----6----6----6----6----6------|
G---4--4--4--4--4--------5----5----5----5----5----|   Reapeat this part
D--------------------------3----3----3----3-------|         twice
A----------------------5----5----5----5----5------|
E-------------------------------------------------|

I couldn't quite work out the rest of the chords to that part though ):

Then this really cool part

E--------------------------------------------------------------|
B--------------------------------------------------------------|
G---8-8-8----6-6-6----8-8-8----6-6-6----AND SO ON.....---------|
D---8-8-8----6-6-6----8-8-8----6-6-6----AND SO ON.....---------|
A---6-6-6----4-4-4----6-6-6----4-4-4----AND SO ON.....---------|
E--------------------------------------------------------------|

SOLO:

E----------------------------------------------------------------|
B----------------------------------------------------------------|
G----------------------------------------------------------------|
D-----------------------4---2---------------2-------9------10--9-|
A------------------2--4---------4\2--0--4---------7------7-------|
E--9\---2----4--5------------------------------0-------0---------|


E----------------------------------------------------------------|
B------5-~5-----------------5----3--2^--------3p-2h-3p-2---------|
G----~5--~5---------------2--------------2-----------------4---2-|
D----~7---------------4---------------------4--------------------|
A----~7----------------------------------------------------------|
E--0-------------------------------------------------------------|


E----2-----------5-----------------------------------------------|
B------3-----------7----12^^----12-12-12-12-12-------------------|
G--------4-------------------------------------6^-6^-6^-6^-6^-6^-|
D--5--------5/7--------------------------------------------------|
A----------------------------------------------------------------|
E----------------------------------------------------------------|


E----------------------------------------------------------------|
B----------------------14---14---14---14---14---14---14----------|
G-6^-6^-6^-~6----6/14----14---14---14---14---14---14---14--------|
D----------------------------------------------------------------|
A----------------------------------------------------------------|
E----------------------------------------------------------------|

Chorus:

E-----------------|
B-7-7-7-7-7-7-7-7-|
G-----------------|  X 6
D-4-4-4-4-4-4-4-4-|
A-----------------|
E-----------------|


E----------------------------|
B----------------------------|
G-----------------2----------|   X 4
D----4---------------4---2---|
A------5--2-----0------------|
E---3-------3----------------|


Outro:

E------------------------------|
B---4--------------------------|
G---4--------------------------|  And just let that ring/ fade out....
D---4--------------------------|
A---2--------------------------|
E------------------------------|

Date: May 29th Monday 1:48PM 2007
Tabbed by: Mucho-mum

                                ----Reborn---


Intro:

e---------------------|--------------------------|
b---------------------|--------------------------|
g---------------------|--------------------------|
d--4-4-\-4-5-2--(x3)--|--4-4--x-x-x--4-4--x-x-x--|
a--4-4-\-4-5-2--------|--4-4--x-x-x--4-4--x-x-x--|
e--2-2-\-2-3-0--------|--2-2--x-x-x--2-2--x-x-x--|

Verse: Some kind of palm muted finger picking going on.
       Try play with both pick and fingers. Listen for timing

e----------------------------|----------------------------|
b----------------------------|----------------------------|
g--4--4----4------4------4---|--4--4----------------------|
d--4--4--4------4------4-----|--5--5----5------5------5---|
a--2--2------2------2------2-|--5--5--5------5------5-----|
e----------------------------|--3--3------3------3------3-|
         pm.................         ...................

e----------------------------|----------------------------|
b----------------------------|----------------------------|
g--4--4----4------4------4---|--4--4----4------4------4---|  Repeat all
d--2--2--2------2------2-----|--4--4--4------4------4-----|  as needed
a--0--0------0------0------0-|--2--2------2------2------2-|
e----------------------------|----------------------------|
         pm.................          ...................

Pre Chorus

e------------------------------------------------------------------------|
b-------------------------------------3--3--3-3--3--3-3--3--3-3--3-3--3--|
g--4--4--4-4--4--4-4--4--4-4--4-4--4--1--1--1-1--1--1-1--1--1-1--1-1--1--|
d--5--5--5-5--5--5-5--5--5-5--5-5--5--2--2--2-2--2--2-2--2--2-2--2-2--2--| x2
a--5--5--5-5--5--5-5--5--5-5--5-5--5--2--2--2-2--2--2-2--2--2-2--2-2--2--|
e--3--3--3-3--3--3-3--3--3-3--3-3--3--0--0--0-0--0--0-0--0--0-0--0-0--0--|


e-------------------------------------------------------------|
b-------------------------------------------------------------|
g--4--4--4--4--4--4--4--4\------------------------------------|
d--5--5--5--5--5--5--5--5\--4-4-\-4-5-2-4-4--x-x-x-x-x-x-x-x--|
a--5--5--5--5--5--5--5--5\--4-4-\-4-5-2-4-4--x-x-x-x-x-x-x-x--|
e--3--3--3--3--3--3--3--3\--2-2-\-2-3-0-2-4--x-x-x-x-x-x-x-x--|

Chorus:

e--2--2--2--2--3--3--3--3--0--0--0--0--2--2--2--2--|
b--3--3--3--3--3--3--3--3--2--2--2--2--3--3--3--3--|
g--4--4--4--4--4--4--4--4--2--2--2--2--4--4--4--4--|
d--4--4--4--4--5--5--5--5--2--2--2--2--4--4--4--4--| x2
a--2--2--2--2--5--5--5--5--0--0--0--0--2--2--2--2--|
e--------------3--3--3--3--------------------------|

Post Chorus: Rythym guitar plays chorus

Lead
e--------------------------7-5~---7--7\5----7---7-------------|
b----------8-7~--------5-7-8-7~---7--7\5----7-----10p7--------|
g------6-7---------/7--6-7--------7--7\6----7----------9h7----|
d--/9--------------/9-------------9--9\7----9--------------9--|
a-------------------------------------------9-----------------|
e-------------------------------------------7-----------------|


Verse


Lead during verse
e----------------------------------------------|
b----------------------------------------------|
g--9^^v-7-------9^^v-7-------9^^v-7------------|
d---------9~-----------9~-----------9~---7-9~--|
a----------------------------------------------|
e----------------------------------------------|


Pre Chorus

Chorus

Post Chorus


Bridge:

e----------------------------------------------------|
b----------------------------------------------------|
g----------------------------------------------------|
d-----2--2~-------2--2~-------2--2~--7--9-10-9--5-4--| x3
a--2---------------------------------x--x-x--x--x-x--|
e--0---------0-2---------0-3---------5--7-8--7--3-2--|


e------------------------------------------------------|
b------------------------------------------------------|
g------------------------------------------------------|
d-----2--2~-------2--2~-------2--2~--7-7-7-7-7-7-------|
a--2---------------------------------7-7-7-7-7-7--etc--|
e--0---------0-2---------0-3---------5-5-5-5-5-5-------|


e------------------------------------------------------------------------|
b-------------------------------------3--3--3-3--3--3-3--3--3-3--3-3--3--|
g--4--4--4-4--4--4-4--4--4-4--4-4--4--1--1--1-1--1--1-1--1--1-1--1-1--1--|
d--5--5--5-5--5--5-5--5--5-5--5-5--5--2--2--2-2--2--2-2--2--2-2--2-2--2--| x2
a--5--5--5-5--5--5-5--5--5-5--5-5--5--2--2--2-2--2--2-2--2--2-2--2-2--2--|
e--3--3--3-3--3--3-3--3--3-3--3-3--3--0--0--0-0--0--0-0--0--0-0--0-0--0--|


e--14--12--10--9--------------------------|
b---x---x---x--x--------------------------|
g--11---9---7--6--------------------------|
d--12--11---9--7--4-4-\-4-5-2-4-4----4-4--|
a-----------------4-4-\-4-5-2-4-4----4-4--|
e-----------------2-2-\-2-3-0-2-2----2-2--|

Chorus

Post Chorus

Outro:

e----------------------|
b----------------------|
g--4-------------------|
d--x--4--5--7--9--10---|
a--2--x--x--x--x--x----|
e-----2--3--5--7--8----|


                                ----One Step Behind----

Intro:
   A        C#m  Em   B    C#m
e--5--------4----7----7----4----|
b--5--------5----8----7----5----|
g--6--------6----9----8----6----|
d--7--------6----9----9----6----|
a--7--------4----7----9----4----|
e--5------------------7---------|

Verse 1: Slow delay effect used

e------------------------0---0------|
b--------5-4---------------2---2----|
g------6---------------1------------|
d----6---------------2--------------| Repeat as needed
a--4---------7-4-2-0----------------|
e-----------------------------------|

Pre Chorus 1: First time round, there's a swell/fade effect
            being used. This is what he's playing though.
   F#m           G#m           A             B
e----------2--2----------4--4----------5--5----------7--7--|
b----------2--2----------4--4----------5--5----------7--7--|
g----------2--2----------4--4----------6--6----------8--8--|
d----------4--4----------6--6----------7--7----------9--9--|
a--4-4-4-4-4--4--6-6-6-6-6--6--7-7-7-7-7--7--9-9-9-9-9--9--|
e--2-2-2-2-2--2--4-4-4-4-4--4--5-5-5-5-5--5--7-7-7-7-7--7--|
   pm.....       .......       .......       .......

e----------2--2----------4--4----------5--5--7-7-7-7-7-7-7-7--|
b----------2--2----------4--4----------5--5--7-7-7-7-7-7-7-7--|
g----------2--2----------4--4----------6--6--8-8-8-8-8-8-8-8--|
d----------4--4----------6--6----------7--7--9-9-9-9-9-9-9-9--|
a--4-4-4-4-4--4--6-6-6-6-6--6--7-7-7-7-7--7--9-9-9-9-9-9-9-9--|
e--2-2-2-2-2--2--4-4-4-4-4--4--5-5-5-5-5--5--7-7-7-7-7-7-7-7--|
   pm.....       .......       .......

Chorus:

e--0--------------------------------4--------------7-----------------|
b--2--------------------------------5--------------8-----------------|
g--2-2-2-2-2-2-2-2-2-2-2-2-2-2-2-2--6-6-6-6-6-6-6--9--9-9-9-9-9-9-9--|
d--2-2-2-2-2-2-2-2-2-2-2-2-2-2-2-2--6-6-6-6-6-6-6--9--9-9-9-9-9-9-9--|
a--0-0-0-0-0-0-0-0-0-0-0-0-0-0-0-0--4-4-4-4-4-4-4--7--7-7-7-7-7-7-7--|
e--------------------------------------------------------------------|


e------------------------------------------------4---2------|
b--------------------------2-2-2-5---4-----2-2-2-5---4------|
g--4---6---8--6---8---9----2-2-2-2-2-2-2-2-2-2-2-2-2-2-2-2--|
d--x---x---x--x---x---x----2-2-2-2-2-2-2-2-2-2-2-2-2-2-2-2--| All that x2
a--2---4---6--4---6---7----0-0-0-0-0-0-0-0-0-0-0-0-0-0-0-0--|
e-----------------------------------------------------------|

Verse 2:

e------------------------------|---------------------------------------------|
b--4\--------------------------|---------------------------------------------|
g--6\--------------------------|---------------------------------------------|
d--6\----6-6-7-----------------|--6-6-6-6------------------------------------|(Repeat
a--4\----6-6-7--7-7-7-7-7-7-7--|--4-4-4-4-6-6-6-7-7-7-7-7-7-7-7-7------------|
e--------4-4-5--5-5-5-5-5-5-5--|----------4-4-4-5-5-5-5-5-5-5-5-5------------|
                pm...........     ...............................

Pre Chorus 2:
e------2--2--2------4--4--4------5--5--5------7--7--7--|
b------2--2--2------4--4--4------5--5--5------7--7--7--|
g------2--2--2------4--4--4------6--6--6------8--8--8--|
d------4--4--4------6--6--6------7--7--7------9--9--9--|
a--4-4-4--4--4--6-6-6--6--6--7-7-7--7--7--9-9-9--9--9--|
e--2-2-2--2--2--4-4-4--4--4--5-5-5--5--5--7-7-7--7--7--|
   pm.          ...          ...          ...

e------2--2--2------4--4--4------5--5--5--7-7-7-7-7-7-7-7--|
b------2--2--2------4--4--4------5--5--5--7-7-7-7-7-7-7-7--|
g------2--2--2------4--4--4------6--6--6--8-8-8-8-8-8-8-8--|
d------4--4--4------6--6--6------7--7--7--9-9-9-9-9-9-9-9--|
a--4-4-4--4--4--6-6-6--6--6--7-7-7--7--7--9-9-9-9-9-9-9-9--|
e--2-2-2--2--2--4-4-4--4--4--5-5-5--5--5--7-7-7-7-7-7-7-7--|
   pm.          ...          ...

Chorus


Pre Solo:

e--------4--6-----------------------|------------------------------------|
b--4\----4--5-----------------------|------------------------5-5-5-5-5\--|
g--6\----5--6-----------------------|--------------------6-6-6-6-6-6-6\--|
d--6\----6--7--7-7-7-7-7-7-7--(x3)--|--6-6-6-6-6-6-6-6-6-6-6-6-6-6-6-6\--|
a--4\----6--7--7-7-7-7-7-7-7--------|--4-4-4-4-4-4-4-4-4-4-4-4-4-4-4-4\--|
e--------4--5--5-5-5-5-5-5-5--------|------------------------------------|
                                       pm...............


Solo:

e------------------------------------------------------------------7-----6-----4------------------|
b-----2-2-2-2---4---2---4---5---2----5\4/5-------7/8\7-5-7^vp5-----------------------7-5~---------|
g--2--2-2-2-2-2-2-2-2-2-2-2-2-2-2-2--6\5/6-8^v-6-8/9\8-6-------8-4---4-4---4-4---4-4-------6---4--|
d--2--2-2-2-2-2-2-2-2-2-2-2-2-2-2-2----------------------------------------------------------6----|
a--0--0-0-0-0-0-0-0-0-0-0-0-0-0-0-0---------------------------------------------------------------|
e-------------------------------------------------------------------------------------------------|


e------0-0-0-----------0-0-0-------|
b------2-2-2-4-4-------2-2-2-4-4\--|
g------2-2-2-4-4-------2-2-2-4-4\--|
d--2-2-2-2-2-2-2-2-2-2-2-2-2-2-2\--|
a--0-0-0-0-0-0-0-0-0-0-0-0-0-0-0---|
e----------------------------------|


Bridge: No guitar at the start, then eventually
        fades into the pre chorus.


Chorus


Outro:


e--0--------------------------------4--------------7-----------------|
b--2--------------------------------5--------------8-----------------|
g--2-2-2-2-2-2-2-2-2-2-2-2-2-2-2-2--6-6-6-6-6-6-6--9--9-9-9-9-9-9-9--|
d--2-2-2-2-2-2-2-2-2-2-2-2-2-2-2-2--6-6-6-6-6-6-6--9--9-9-9-9-9-9-9--|
a--0-0-0-0-0-0-0-0-0-0-0-0-0-0-0-0--4-4-4-4-4-4-4--7--7-7-7-7-7-7-7--|
e--------------------------------------------------------------------|


e--------------------------|
b--------------------------|
g--4---6---8--6---8---9----|
d--x---x---x--x---x---x----|
a--2---4---6--4---6---7----|
e--------------------------|


e--0--------------------------------4--------------7-----------------|
b--2--------------------------------5--------------8-----------------|
g--2-2-2-2-2-2-2-2-2-2-2-2-2-2-2-2--6-6-6-6-6-6-6--9--9-9-9-9-9-9-9--|
d--2-2-2-2-2-2-2-2-2-2-2-2-2-2-2-2--6-6-6-6-6-6-6--9--9-9-9-9-9-9-9--|
a--0-0-0-0-0-0-0-0-0-0-0-0-0-0-0-0--4-4-4-4-4-4-4--7--7-7-7-7-7-7-7--|
e--------------------------------------------------------------------|


e------------------------------------------------4---2------|
b--------------------------2-2-2-5---4-----2-2-2-5---4------|
g--4---6---8--6---8---9----2-2-2-2-2-2-2-2-2-2-2-2-2-2-2-2--|
d--x---x---x--x---x---x----2-2-2-2-2-2-2-2-2-2-2-2-2-2-2-2--|
a--2---4---6--4---6---7----0-0-0-0-0-0-0-0-0-0-0-0-0-0-0-0--|
e-----------------------------------------------------------|


e------------------------4---2------------|--4\----|
b--2-2-2-5---4-----2-2-2-5---4------------|--5\----|
g--2-2-2-2-2-2-2-2-2-2-2-2-2-2-2-2--------|--6\----|
d--2-2-2-2-2-2-2-2-2-2-2-2-2-2-2-2--(x4)--|--6\----|
a--0-0-0-0-0-0-0-0-0-0-0-0-0-0-0-0--------|--4\----|
e-----------------------------------------|--------|

                               ----Nowhere Town---

               This song is played with two guitars!

Intro:

e-----------------------------------------------------------------------------------|
b-----------------------------------------------------------------------------------|
g-----------------------------------------------------------------------------------|
d--------------------------------------------------------------------0-----0--------|
a----8-7---8---7-----7-5---7---5-----7-5---7---5-----5-----5---5-------3-------3----|
e--5-----5---5---5-4-----4---4---4-3-----3---3---3-2---2-2---2---2-1-----1---1---1--|


e---------------------|
b---------------------|
g----9---7---5---4----|
d----x---x---x---x----|
a----7---5---3---2----|
e--0---0---0---0------|


e-----------------------------------------------------------------------------------|
b-----------------------------------------------------------------------------------|
g-----------------------------------------------------------------------------------|
d--------------------------------------------------------------------0-----0--------|
a----8-7---8---7-----7-5---7---5-----7-5---7---5-----5-----5---5-------3-------3----|
e--5-----5---5---5-4-----4---4---4-3-----3---3---3-2---2-2---2---2-1-----1---1---1--|


e-------------------|
b------------0-3-0--|
g----------1--------|
d----2-0-2----------|
a-------------------|
e--0----------------|


Verse: x2

e--------------------------------------------------------------0-0-0-0-0-----|
b--------------------------------------------------------------1-1-1-1-1--3--|
g---------------2--------0-------------------------2-----------2-2-2-2-2--2--|
d------2-------------------0---2---0------2-----------------2--3-3-3-3-3--3--|
a--0-0---0--0-0---0--0-0-----0--------------0--------0-----------------------|
e--------------------------------3----1-1------1-1------1-1------------------|
   pm.      ...      ...              ...      ...      ...


e----------------------------------------------------------------------------|
b----------------------------------------------------------------------------|
g---------------2--------0-------------------------2-------------------------|
d------2-------------------0---2---0------2-----------------2-0------2-0-----|
a--0-0---0--0-0---0--0-0-----0--------------0--------0-----------------------|
e--------------------------------3----1-1------1-1------1-1------1-1---------|
   pm.      ...      ...              ...      ...      ...      ...

Pre Chorus:

e---------------------------------------------------------------|
b--6-6-6--6--6--6--6--6--6--6-6-6--6--6--6--6--6--6----9----10--|
g--7-7-7--5--5--5--5--5--5--7-7-7--5--5--5--5--5--5----9----9---|
d--7-7-7--x--7--8--8--8--8--7-7-7--x--7--8--8--8--8----9----9---|
a--5-5-5--5--5--5--5--5--5--5-5-5--5--5--5--5--5--5----7----7---|
e------------------------------------------------------0----0---|


e-------------------------------------|
b-------------------------------------|
g--------------------9---7---5---4----|
d--9-----------------x---x---x---x----|
a--7--7-7-7-7-7-7-7--7---5---3---2----|
e--0--0-0-0-0-0-0-0----0---0---0------|


Chorus: Upstrokes
Rythym
   Am                         Dm          Bb          Am          E7          Am
e--5--5--5--5--5--5--5--5--5--5--5--5--5--6--6--6--6--5--5--5--5--0--0--0--0--5--5--5-5-5--|
b--5--5--5--5--5--5--5--5--5--6--6--6--6--6--6--6--6--5--5--5--5--3--3--3--3--5--5--5-5-5--|
g--5--5--5--5--5--5--5--5--5--7--7--7--7--7--7--7--7--5--5--5--5--1--1--1--1--5--5--5-5-5--|
d--7--7--7--7--7--7--7--7--7--7--7--7--7--8--8--8--8--7--7--7--7--0--0--0--0--7--7--7-7-7--|
a------------------------------------------------------------------------------------------|
e------------------------------------------------------------------------------------------|

   Am                         Dm          Bb          Am          E7          Am
e--5--5--5--5--5--5--5--5--5--5--5--5--5--6--6--6--6--5--5--5--5--0--0--0--0--5--5--5--5-----------------|
b--5--5--5--5--5--5--5--5--5--6--6--6--6--6--6--6--6--5--5--5--5--3--3--3--3--5--5--5--5----------0-3-0--|
g--5--5--5--5--5--5--5--5--5--7--7--7--7--7--7--7--7--5--5--5--5--1--1--1--1--5--5--5--5--------1--------|
d--7--7--7--7--7--7--7--7--7--7--7--7--7--8--8--8--8--7--7--7--7--0--0--0--0--7--7--7--7--2-0-2----------|
a--------------------------------------------------------------------------------------------------------|
e--------------------------------------------------------------------------------------------------------|


Lead
e-------------------------------------------------------------------------------------------|
b-------------------------------------------------------------------------------------------|
g-------------------------------------------------------------------------------------------|
d-------------------------------------------------------------------------------------------|
a-------------------------3---5~--------------------------------------------------7-5-------|
e--5~-------------------5---5-------------6~----6-8-6-5~----5-6-5-0------0-3--5~------8-7---|

e-------------------------------------------------------------------------------------------------------------13--|
b-------------------------------------------------------------------------------------------------------12-15-----|
g----------------------------------------------------------------------------------------------------13-----------|
d-------------------------------------------------------------------------------------------14-12-14--------------|
a-------------------------3---5~--------------------------------------------------7-5-----------------------------|
e--5~-------------------5---5-------------6~----6-8-6-5~----5-6-5-0------0-3--5~------8-7-0-----------------------|

Post Chorus:

Rythym
e---------------------------------------------------------------------|
b------------------------------------------------------------0-3-0----|
g----------------------------------------------------------1----------|
d--2-2-2-2-2-2-2-2-----------------2-2-2-2-2-2-2-2---2-0-2------------|
a--0-0-3-3-0-0-2-2-2-2-2-2-2-2-2-2-0-0-3-3-0-0-3-3--------------------|
e------------------0-0-0-0-0-0-0-0-----------------0------------------|


Lead
e--12--------------------------13-12----------------------------------|
b--13--------------------12-15----13----------------------12-15-12----|
g--12-----------------13----------12-------------------13-------------|
d------------14-12-14-------------------------14-12-14----------------|
a---------------------------------------------------------------------|
e---------------------------------------------------------------------|


Verse

Pre Chorus

Chorus

Post Chorus

Solo:

e------------------------------------------------------------------------------|
b-------------------------------------12---------------------------------------|
g-------------------7^^--7^^----12^^-----12p9----------------------------------|
d--7--6--5--4--3------------------------------12p10----------------------------|
a--x--x--x--x--x------------------------------------12--10h12p10h12p10h12p10h--|
e--5--4--3--2--1---------------------------------------------------------------|


e----5--5--5--5--/5---------------------------------------------------------------|
b----5--5--5--5-----5---------------------------------------------10~--12^^v-10~--|
g--4-5--5--5--5-------5--------------7-------10p7---7-13p10----10-----------------|
d-----------------------7--------6h9---9p6-9------9---------12--------------------|
a-------------------------8---/7--------------------------------------------------|
e---------------------------------------------------------------------------------|


e--------------------------------------|
b------------0-3-0------------2-5-2----|
g----------1----------------3----------|
d----2-0-2------------4-2-4------------|
a--------------------------------------|
e--0---------------2-------------------|


KEY CHANGE: Play Chorus as before, but 1 step up.
            ie Bm, Em, C, Bm, F#7, Bm

KEY CHANGES BACK TO NORMAL: Strum Chorus chords


Outro:

e-----------------------------------------------------------------------------------|
b-----------------------------------------------------------------------------------|
g-----------------------------------------------------------------------------------|
d--------------------------------------------------------------------0-----0--------|
a----8-7---8---7-----7-5---7---5-----7-5---7---5-----5-----5---5-------3-------3----|
e--5-----5---5---5-4-----4---4---4-3-----3---3---3-2---2-2---2---2-1-----1---1---1--|


e-------------------------|---------------------12----|
b-------------------------|---------------12-15-------|
g----9---7---5---4--------|------------13-------------|
d----x---x---x---x--(x3)--|--/14-12-14----------------|
a----7---5---3---2--------|---------------------------|
e--0---0---0---0----------|---------------------------|


                            ----State Of Emergency----

Intro:

e-----------------------|-----------------------------------|
b-----------------------|-----------------------------------|
g-----------------------|-----------------------------------|
d------4p2--------(x3)--|-----------------------------------|
a----------4p2p0--------|--4-4-4-4-4-4-4-4-5-5-5-5-5-5-5-5--|
e--2~-------------------|--5-5-5-5-5-5-5-5-7-7-7-7-7-7-7-7--|


Verse 1:

e-------------------------------------------------------------------|
b-------------------------------------------------------------------|
g-------------------------------------------------------------------|
d-------------------------------------------------------------------| x3
a--0-0-0-0-0-0-0-0-0-0-0-0-0-0-0-0-4-4-4-4-4-4-4-4-5-5-5-5-5-5-5-5--|
e--2-2-2-2-2-2-2-0-2-2-2-2-2-2-2-0-5-5-5-5-5-5-5-5-7-7-7-7-7-7-7-7--|


e-----------------------------|
b--6-6-6----6-6-6----6-6-6-6--|
g--6-6-6----6-6-6----6-6-6-6--|
d--6-6-6----6-6-6----6-6-6-6--|
a--4-4-4----4-4-4----4-4-4-4--|
e-----------------------------|


Chorus:

e-------------------------------------------------------------------|
b-------------------------------------------------------------------|
g-------------------------------------------------------------------|
d--4-4-4-4-4-4-4-4-6-6-6-6-6-6-6-6-7-7-7-7-7-7-7-7-9-9-9-9-9-9-9-9--| x2
a--x-x-x-x-x-x-x-x-x-x-x-x-x-x-x-x-x-x-x-x-x-x-x-x-x-x-x-x-x-x-x-x--|
e--2-2-2-2-2-2-2-2-4-4-4-4-4-4-4-4-5-5-5-5-5-5-5-5-7-7-7-7-7-7-7-7--|


e-------------------------------------------------------------------|
b-------------------------------------------------------------------|
g-11-11-11--11--11--/14--13--11--9--6-6-6-6-6-6-6-6--14--13--11--9--|
d--x--x--x---x---x----x---x---x--x--x-x-x-x-x-x-x-x---x---x---x--x--| x2
a--9--9--9---9---9--/12--11---9--7--4-4-4-4-4-4-4-4--12--11---9--7--|
e-------------------------------------------------------------------|


Verse 2: As with Verse 1, with 2nd guitar playing intro.


Chorus


Bridge:

Guitar 1
e-------------------------------------------------------------------|
b-------------------------------------------------------------------|
g-------------------------------------------------------------------|
d-------------------------------------------------------------------|
a--4-----4-----4---5-----5-----5---7-----7-----7---5-----5-----5----|
e--5-5-5-5-5-5-5-5-7-7-7-7-7-7-7-7-9-9-9-9-9-9-9-9-7-7-7-7-7-7-7-7--|
   pm.............................................................

e-------------------------------------------------------------------|
b-------------------------------------------------------------------|
g-------------------------------------------------------------------|
d-------------------------------------------------------------------|
a--4-----4-----4---5-----5-----5---7-----7-----7---7-----7-----7----|
e--5-5-5-5-5-5-5-5-7-7-7-7-7-7-7-7-9-9-9-9-9-9-9-9-9-9-9-9-9-9-9-9--|
   pm.............................................................


Guitar 2
e---------------------------------------------------------------------------|
b--10----10--------10----10--------10-------10-------------10----10---------|
g--x-x-x-x-x-x-x-x-x-x-x-x-x-x-x-x--x--x--x--x--x--x--x--x-x-x-x-x-x-x-x-x--|
d--7-7-7-7-7-7-7-7-9-9-9-9-9-9-9-9-11-11-11-11-11-11-11-11-9-9-9-9-9-9-9-9--|
a---------------------------------------------------------------------------|
e---------------------------------------------------------------------------|
   pm.....................................................................

e-----------------------------------------------------------------------------------|
b--10----10--------10----10--------10-------10-------------10-------10--------------|
g--x-x-x-x-x-x-x-x-x-x-x-x-x-x-x-x--x--x--x--x--x--x--x--x--x--x--x--x--x--x--x--x--|
d--7-7-7-7-7-7-7-7-9-9-9-9-9-9-9-9-11-11-11-11-11-11-11-11-11-11-11-11-11-11-11-11--|
a-----------------------------------------------------------------------------------|
e-----------------------------------------------------------------------------------|
   pm.............................................................................

Pre Solo:

e--------------------------|--------------------|
b--------------------------|--------------------|
g------11p9----------------|--------------------|
d-----------11p9-----(x3)--|--7----7----9----9--|
a--9~------------12--------|--7----7----9----9--|
e--------------------------|--5----5----7----7--|

Solo: Rythym guitar plays intro

e-----------------------|--------------------------------|
b-----------------------|--------------------------------|
g-----------------------|-----------------------------9--|
d------4p2--------(x3)--|--------6~--7p6-7--9~--9p7-9----|
a----------4p2p0--------|--9p7-9-------------------------|
e--2~-------------------|--------------------------------|

e--------------------------------------------------------------------------------------------------------|
b-----------------------------------------------------------------14-----14--14--14--14--14--14--14--14--|
g--11~--14p13p11------------14p13p11------------14p13p11-11-13/14-16^^---^^--^^--^v--^v--^v--^v--^v--^v--|
d----------------14-11---------------14-11---------------------------------------------------------------|
a----------------------12~-----------------12~-----------------------------------------------------------|
e--------------------------------------------------------------------------------------------------------|
                                                                         (Gradually
the bend)

e-------------------------------------------------------------------------------------------|
b--14\--------------------------------------------------------------------------------------|
g--14\--6b~-------6b~------------------------------------------------------6---6-9p6-9-9^^--|
d-------7b~--\----6b~--4---------------------------------------7---7-9p7-9---9--------------|
a------------\-----------7~--9~--9-9p7-------------7---7-9h7-9---9--------------------------|
e------------\-2~----------------------7p5-7-9p7-9---9--------------------------------------|

Post Solo:

e-----------------------|-----------------------------------|
b-----------------------|-----------------------------------|
g-----------------------|-----------------------------------|
d------4p2--------(x3)--|-----------------------------------| x2
a----------4p2p0--------|--4-4-4-4-4-4-4-4-5-5-5-5-5-5-5-5--|
e--2~-------------------|--5-5-5-5-5-5-5-5-7-7-7-7-7-7-7-7--|

e-----------------------------|
b--6-6-6----6-6-6----6-6-6-6--|
g--6-6-6----6-6-6----6-6-6-6--|
d--6-6-6----6-6-6----6-6-6-6--|
a--4-4-4----4-4-4----4-4-4-4--|
e-----------------------------|

Chorus

Outro:

e-------------------------------------------------------------------------------------------|
b-------------------------------------------------------------------------------------------|
g--11-11-11-11-11-11-11-11-11-11-11-11-11-11-11-11-11-11-11-11-11-11-11-11---14--13--11--9--|
d---x--x--x--x--x--x--x--x--x--x--x--x--x--x--x--x--x--x--x--x--x--x--x--x----x---x---x--x--|
a---9--9--9--9--9--9--9--9--9--9--9--9--9--9--9--9--9--9--9--9--9--9--9--9--/12--11---9--7--|
e-------------------------------------------------------------------------------------------|

e--------------------------------------------------|
b--------------------------------------------------|
g--------------------------------------------------|
d------4p2-----------4p2-----------4p2-------------|
a----------4p2p0---------4p2p0---------4p2p0-------|
e--2~------------2~------------2~------------2\----|

                      ----Black Cat-----


Intro:

e----------------------------------------|
b----------------------------------------|
g--6-6-------------------6-6-------------|
d--6-6--------2-2--------6-6--------2-2--| x2
a--4-4--------2-2--------4-4--------2-2--|
e-------------0-0-------------------0-0--|

e-----------------------------------------------------------------|
b-----------------------------------------------------------------|
g--6-6-------------------6-6--------------------------------------|
d--6-6--------2-2--------6-6--------2--------2--------2--------2--|
a--4-4--------2-2--------4-4--------2--------2--------2--------2--|
e-------------0-0-------------------0--------0--------0--------0--|


Pre Verse:

e-------------------------------------------------------------------|
b-------------------------------------------------------------------|
g-------------------------------------------------------------------|
d-------------------------------------------------------------------|
a--4-4-4-4-4-4---------------------4-4-4-4-4-4----------------------|
e--------------4-6-0-0-0-0-0-0-4-6-------------4-6-0-0-0-0-0-0-4-6--|

e-------------------------------------------------------------------|
b-------------------------------------------------------------------|
g-------------------------------------------------------------------|
d-------------------------------------------------------------------|
a--4-4-4-4-4-4---------------------4-4-4-4-4-4-4-4-4-4-4-4-4-4-4-4--|
e--------------4-6-0-0-0-0-0-0-4-6----------------------------------|

Verse 1:

e-------------------------------------------------------------------|
b-------------------------------------------------------------------|
g-------------------------------------------------------------------|
d-------------------------------------------------------------------| x3
a--4-4-4-4-4-4---------------------4-4-4-4-4-4----------------------|
e--------------4-6-0-0-0-0-0-0-4-6-------------4-6-0-0-0-0-0-0-4-6--|


e--------------------------------------------------0--------0--------0--------0~~--|
b--------------------------------------------------0--------0--------0--------0~~--|
g--------------------------------------------------1--------1--------1--------1~~--|
d--------------------------------------------------2--------2--------2--------2~~--|
a--4-4-4-4-4-4---------------------4-4-4-4-4-4-----2--------2--------2--------2~~--|
e--------------4-6-0-0-0-0-0-0-4-6-------------4-6-0--------0--------0--------0~~--|

Chorus:

e----------------------------------------------|-----------------------------------|
b----6-6-6-6-6-6-6-6---------------------------|-----------------------------------|
g----6-6-6-6-6-6-6-6----1-1-1-1-1-1-1-1--------|--2-----4-----6-----8--------------|
d----6-6-6-6-6-6-6-6----2-2-2-2-2-2-2-2--(x3)--|--4-4-4-6-6-6-7-7-7-9-9-9-9-9-9\---|
a----4-4-4-4-4-4-4-4----2-2-2-2-2-2-2-2--------|--x-x-x-x-x-x-x-x-x-x-x-x-x-x-x----|
e-----------------------0-0-0-0-0-0-0-0--------|--2-2-2-4-4-4-5-5-5-7-7-7-7-7-7\---|

Pre Verse:

e-------------------------------------------------------------------|
b-------------------------------------------------------------------|
g-------------------------------------------------------------------|
d-------------------------------------------------------------------|
a--4-4-4-4-4-4---------------------4-4-4-4-4-4----------------------|
e--------------4-6-0-0-0-0-0-0-4-6-------------4-6-0-0-0-0-0-0-4-6--|

Verse 2: Same as verse 1, with 2nd guitar added

Guitar 2
e-------------------------------------------------------------------|
b--2-2-2-2-2-2------------------------------------------------------|
g--------------1-3---------------------------------------------1-3--|
d------------------2-2-2-2-2-2-1-2-3-3-3-3-3-3-1-3------------------| x3
a--------------------------------------------------2-2-2-2-2-2------|
e-------------------------------------------------------------------|

e--------------------------------------------------0----|
b--2-2-2-2-2-2-------------------------------------0----|
g--------------1-3---------------------------------1----|
d------------------2-2-2-2-2-2-1-2-3-3-3-3-3-3-1-3-2~~--|
a--------------------------------------------------2~~--|
e--------------------------------------------------0~~--|

Chorus x2, then:

e--------------------------------------------------------|
b--------------------------------------------------------|
g--2-----4-----6-----8---------------2----4----6----8----|
d--4-4-4-6-6-6-7-7-7-9-9-9-9-9-9\----4----6----7----9----|
a--x-x-x-x-x-x-x-x-x-x-x-x-x-x-x-----x----x----x----x----|
e--2-2-2-4-4-4-5-5-5-7-7-7-7-7-7\----2----4----5----7----|

Bridge:

e------------------------|-----------------------------------------|
b------------------------|-----------------------------------------|
g------------------------|-----------------------------------------|
d-----------(x4)---------|-----------------------------------(x4)--|
a--------4---------------|--0-0-0-0-3-2-0-----------3-2-0----------|
e--0-4-6----------0-4-6--|----------------3-0-0-0-0-------3--------|

Breaks off into 2 guitars here

Rythym
e----------------------------------|----------------------------------------|
b----------------------------------|----------------------------------------|
g----------------------------------|----------------------------------------|
d----------------------------------|-6-6-6-6-6-6----------------------(x3)--|
a--------------------------------3-|-4-4-4-4-4-4-----2-2-2-2-2-2------------|
e--3-4-5-3-4-5-3-4-5-3-4-5-3-4-5---|-------------4-6-0-0-0-0-0-0-4-6--------|

Lead
e----------------------------------|--9--------------12---------------------|
b----------------------------------|--9--------------12---------------------|
g----------------------------------|--11^^-----------14^^--(x3)-------------|
d----------------------------------|----------------------------------------|
a----------------------------------|----------------------------------------|
e----------------------------------|----------------------------------------|

Chorus x2

Outro:

e----------------------------------------|----------------------|
b----------------------------------------|----------------------|
g--2-----4-----6-----8-------------------|--2----4----6----8----|
d--4-4-4-6-6-6-7-7-7-9-9-9-9-9-9\--(x2)--|--4----6----7----9----|
a--x-x-x-x-x-x-x-x-x-x-x-x-x-x-x---------|--x----x----x----x----|
e--2-2-2-4-4-4-5-5-5-7-7-7-7-7-7\--------|--2----4----5----7----|


                                  ----Into The Red----


Intro:

e----------------------------------------------------------|
b----------------------------------------------------------|
g--4-4-4-4-4---4---4-4-4--2--3--4--4-4-4-4---4-------2--3--|
d--4-4-4-4-4---4---4-4-4--2--3--4--4-4-4-4---4----\--2--3--|
a--2-2-2-2-2p0-2p0-2-2-2--0--1--2--2-2-2-2p0-2p0--\--0--1--|
e-------------------------------------------------\--------|


e--------------------------------------------------------------|
b--------------------------------------------------------------|
g--4--4-4-4-4---4---4-4-4--2--3--4--4-4-4-4---4---4-4-4--2--3--|
d--4--4-4-4-4---4---4-4-4--2--3--4--4-4-4-4---4---4-4-4--2--3--|
a--2--2-2-2-2p0-2p0-2-2-2--0--1--2--2-2-2-2p0-2p0-2-2-2--0--1--|
e--------------------------------------------------------------|

Verse:

e--------------------------------------------------------------|
b--------------------------------------------------------------|
g--4--4---4---4---4---4---4---4---4---4---4---4---4---4--2--3--|
d--4--4-4-4-4-4-4-4-4-4-4-4-4-4-4-4-4-4-4-4-4-4-4-4-4-4--2--3--| x3
a--2--2-2-2-2-2-2-2-2-2-2-2-2-2-2-2-2-2-2-2-2-2-2-2-2-2--0--1--|
e--------------------------------------------------------------|
      pm...............................................


e--------------------------------------------------|
b--------------------------------------------------|
g--4--4---4---4---4---4---4---4-4-4-4-4-4-4-4-4p0--|
d--4--4-4-4-4-4-4-4-4-4-4-4-4-4-4-4-4-4-4-4-4-4p0--|
a--2--2-2-2-2-2-2-2-2-2-2-2-2-2-2-2-2-2-2-2-2-2p0--|
e--------------------------------------------------|
      pm.....................

Pre Chorus:

e-------0-------------------------------------------------------------|
b-------0-------------------------------------------------------------|
g-2-4---1---4---6--6-6-6-6-6-------9--------------------------7-------|
d-2-4---2---4---6--6-6-6-6-6--7-9--9--9--7--7-7-7-7-7-7----7--7--7----|
a-0-2---2---2---4--4-4-4-4-4--7-9--7--9--7--7-7-7-7-7-7--7-7--5--7----|
e-------0---------------------5-7--0--7--5--5-5-5-5-5-5--0-5-----5----|


e--2----0----2-------------------|
b--2----0----3----2--------------|
g--2----1----2----2--------------|
d--4----2----0----2--------------|
a--4----2---------0--------------|
e--2----0--------------4-4bv~-0--|

Chorus:

e--2--2-2-2-2---0---0--2--2--2--------|--2--2-2-2-2---0---0------------|
b--2--2-2-2-2---0---0--3--3--3--------|--2--2-2-2-2---0---0------------|
g--2--2-2-2-2---1---1--2--2--2--------|--2--2-2-2-2---1---1------------|
d--4--4-4-4-4-0-2---2--0--0--0--(x2)--|--4--4-4-4-4-0-2---2-2-2-2-2-2--|
a--4--4-4-4-4-0-2---2-----------------|--4--4-4-4-4-0-2---2-2-2-2-2-2--|
e--2--2-2-2-2-0-0---0-----------------|--2--2-2-2-2-0-0---0-0-0-0-0-0--|

Post Chorus:

e------------------------------|
b--7b--7-7---7-7---7-----------|
g--7b--7-7---7-7---7-----2--3--|
d----------9-----9---9~--2--3--|
a------------------------0--1--|
e------------------------------|


Verse

Pre Chorus

Chorus

Pre Solo:

e---------------------------------------------------|
b--7---7-7---7-7---7-------------7----7-7---7-9^v^--|
g--7---7-7---7-7---7-------7--8--7----7-7---7-9^v^--|
d----9-----9-----9---9~----7--8--9--9-----9---------|
a--------------------------5--6--7------------------|
e---------------------------------------------------|
                                              (Bend up, release and then slowly bend up again)


Solo: Rythym plays verse

e----------------------------------------------------------------------------7--|
b--7---7---7---7-7-7-7---7-7-------------------------------------------------7--|
g--7b--7b--7b--7-7-7-7b--b-b---------------------------------------------7h9----|
d----------------------------9~--12p9----9-12p9----9-12p9----9-12p9----9--------|
a-------------------------------------12--------12--------12--------12----------|
e-------------------------------------------------------------------------------|
                       (hold bend)

e--7----7-7---7-7-7---7-7-7---7-7-7---7-7-7---7-7-7---7-7-10p7-7-10b--|
b--7----7-7---7-7-7---7-7-7---7-7-7---7-7-7---7-7-7---7-7--9p7-7--9b--|
g--9^^----9^^-----9^^-----9^^-----9^^-----9^^-----9^^-----------------|
d---------------------------------------------------------------------|
a---------------------------------------------------------------------|
e---------------------------------------------------------------------|

e--14------14------14-----14-14-14-14-14-14-14-14-14-14-14----------------|
b--15^-----15^-----15^----15^-^--^--^--^--^--^--^--^--^-15^v-\------------|
g-------16------16-----16------------------------------------\------------|
d------------------------------------------------------------\------------|
a-------------------------------------------------------------------------|
e-----------------------------------------------------------------/10^^~--|
                            (Hold bend)

e--------------------------------------|--------------------------------------------------|
b--9-----------------------------------|--------------------------------------------------|
g--9---9-9-9-9-9--1--------------------|--9--9--------9--9--------9-----9-----9-----2--3--|
d--9---9-9-9-9-9--2---2-2-2-2-2--(x2)--|--9--9--2--2--9--9--2--2--9--2--9--2--9--2--2--3--|
a--7---7-7-7-7-7--2---2-2-2-2-2--------|--7--7--2--2--7--7--2--2--7--2--7--2--7--2--0--1--|
e-----------------0---0-0-0-0-0--------|--------0--0--------0--0-----0-----0-----0--------|


Intro

Verse

Chorus

Outro:

e---------------------------------------------------|
b---------------------------------------------------|
g--7----9----7----9--7/9-9--7----9----7----9--2--3--|
d--7----9----7----9--7/9-9--7----9----7----9--2--3--|
a--5----7----5----7--5/7-7--5----7----5----7--0--1--|
e-----0----0----0--------------0----0----0----------|

Ending:

Rythym
e-----------------------------------------------------------------|
b-----------------------------------------------------------------|
g--4---------------------2--3--4----------------------------4-----|
d--4---------------------2--3--4----------------------------4-----|
a--2---------------------0--1--2----------------------------2-----|
e-----------------------------------------------------------------|

Lead
e------------------------------------7----------------------------|
b--7b----7-7---7-7---7----------7---------------------------------|
g--7b----7-7---7-7---7----------9^^----9p7---7--------------------|
d------9-----9-----9---9~------------------9---9-7----------------|
a--------------------------------------------------9-8-7----------|
e--------------------------------------------------------10-7~----|


By Moonpie
comments
print report bad tab
5 comments total. Showing first comments.
0 reply
Oldmonkeys wrote on April 18 2007, 09:00 pm

the main riffs in all of them are right, but some of the solos are wrong right notes just making it difficult for yourself ***

0 reply
mucho-mum wrote on May 15 2007, 02:14 am

Well this tab is pretty darn sweet.....
It was a good idea to fuse all the songs together!

0 reply
harveybrad93 wrote on May 27 2007, 02:25 am

good tab

I want to post or [tab]
guest
You may want to rate the tab now too:
select rating
Please do not post tabs as comments. Select "correction" instead!