Oops, an error
Loading. Please wait.

The Living End Tab

ver1
ver1

Album

Whole song

More versions @911Tabs.com
4,982 views 3 this week
8 commentsread comments
1 2 3 4 5
accurate
x 6
Autoscroll
+/-
esc
set tempo
stop
Contributor
Hey! There's an official Ultimate Guitar app which is ideal
for learning songs when you're away from computer. Get the app
WARNING: You are trying to view
                                    content from Ultimate-Guitar.com
                                    in an unauthorized application,
                                    which is prohibited.

                                    Please use an official Ultimate
                                    Guitar Tabs application for iPhone,
                                    iPad or Android to access legitimate
                                    chords, guitar, bass, and drum tabs
                                    from Ultimate-Guitar.com database.

                                    Type "ultimate guitar tabs" in Apple
                                    App Store's or Android Market's
                                    search to find the application.
Band: THE LIVING END
Album: THE LIVING END

I would like to thank: 
prime_inertia for 'prisoner of society'
John for 'second solution'
dave04 for 'west end riot'
Armin Klauser for 'bloody mary'
Jason Zarpellon for 'monday'
Marko for 'all torn down'
unforgiven@paradise.net.nz for 'save the day'

and a special thanks to Michael Fryar an outstanding tabber, for:
'growing up (falling down)'
'trapped'
'have they forgotten'
'fly away'
'i want a day'
'sleep on it'
and 'closing in'

thanks to all of you.


Symbols:

 *  - harmonic
 h  - hammer on
 p  - pull off
 /  - slide
 b  - bend
 r  - release bend

----------------------------
song #1: prisoner of society  
----------------------------
tabbed by prime_inertia


Intro#1:

e--------------------------------------|
b--------------------------------------|
g-9-9---------------------2-0-2------2-|
d-9-9---6-6---7-7---8-8---2-0-2-(x4)-2-|
a-7-7---6-6---7-7---8-8--------------0-|
e-----0-4-4-0-5-5-0-6-6-0--------------|



Intro#2:

            A        C        D        E
e---------------------------------------------|
b---------------------------------------------|
g-----------2-2--2---5-5--5---7-7--7---9-9--9-|
d-----------2-2--2---5-5--5---7-7--7---9-9--9-|
a-----------0-0--0---3-3--3---5-5--5---7-7--7-|
e-pickslide-----------------------------------|

   A        C        D        E
e------------------------------------|
b------------------------------------|
g--2-2--2---5-5--5---7-7--7---9-9--9-|
d--2-2--2---5-5--5---7-7--7---9-9--9-|
a--0-0--0---3-3--3---5-5--5---7-7--7-|
e------------------------------------|


Verse:

  A
e-------------------------------------|
b-------------------------------------|
g-2-2---------2-2---------2-2--2------|
d-2-2---------2-2---------2-2--2-(x2)-|
a-0-0-0-0-0-0-0-0-0-0-0-0-0-0--0------|
e-------------------------------------|
      / p.m  \    / p.m  \

  C                  D
e--------------------------------------|
b--------------------------------------|
g-5-5----------------7-7---------------|
d-5-5----------------7-7---------------|
a-3-3-3-3-3-3-3-3-3--5-5-5-5-5-5-5-5-5-|
e--------------------------------------|
     / palm muted \     / palm  muted \

  A
e--------------------------------|
b--------------------------------|
g-2-2---------2-2---------2-2--2-|
d-2-2---------2-2---------2-2--2-|
a-0-0-0-0-0-0-0-0-0-0-0-0-0-0--0-|
e--------------------------------|
      / p.m  \    / p.m  \

Repeat once again from the start of verse.


Chorus:

  A                      C
e----------------------------------------------|
b----------------------------------------------|
g-2-2-2-2-2-2-2-2-2-2-2--5-5-5-5-5-5-5-5-5-5-5-|
d-2-2-2-2-2-2-2-2-2-2-2--5-5-5-5-5-5-5-5-5-5-5-|
a-0-0-0-0-0-0-0-0-0-0-0--3-3-3-3-3-3-3-3-3-3-3-|
e----------------------------------------------|

  F                      G  A
e------------------------3--------------------|
b------------------------3--------------------|
g------------------------0--2-2-2-2-2-2-2-----|
d-3-3-3-3-3-3-3-3-3-3-3--0--2-2-2-2-2-2-2ect--|
a-3-3-3-3-3-3-3-3-3-3-3--2--0-0-0-0-0-0-0-----|
e-1-1-1-1-1-1-1-1-1-1-1--3--------------------|

  D                         Bb
e-2-2-2-2-2-2-2-2-2-2-2-2-2--------------------------|
b-3-3-3-3-3-3-3-3-3-3-3-3-3--------------------------|
g-2-2-2-2-2-2-2-2-2-2-2-2-2-3-3-3-3-3-3-3-3-3-3-3-3-3|
d-0-0-0-0-0-0-0-0-0-0-0-0-0-3-3-3-3-3-3-3-3-3-3-3-3-3|
a---------------------------1-1-1-1-1-1-1-1-1-1-1-1-1|
e----------------------------------------------------|

        F                           A
e-------------------------------------------------|
b-------------------------------------------------|
g-----------------------------------2-2-2-2-2-2-2-|
d-------3-3-3-3-3-3-3-3-3-3-3-3-3-5-2-2-2-2-2-2-2-|
a-0-----3-3-3-3-3-3-3-3-3-3-3-3-3-5-0-0-0-0-0-0-0-|
e---3-1-1-1-1-1-1-1-1-1-1-1-1-1-1-3---------------|

Intro#1 (x2)

Verse


Bridge/Pre Solo:

  A   A#  A
e-----------------------------------|
b-----------------------------------|
g-2-2-3-3-2-2-----------------------|
d-2-2-3-3-2-2-------0-2p0------(x2)-|
a-0-0-1-1-0-0-0h2h4-------3p0-------|
e-----------------------------------|

  D   D#  D
e-2-2-----2-2-----------------|
b-3-3-4-4-3-3-----------------|
g-2-2-3-3-2-2-------0-2p0-----|
d-0-0-1-1-0-0-0h2h4-------3p0-|
a-----------------------------|
e-----------------------------|

  A   A#  A
e------------------------------|
b------------------------------|
g-2-2-3-3-2-2------------------|
d-2-2-3-3-2-2-------0-2p0------|
a-0-0-1-1-0-0-0h2h4-------3p0--|
e------------------------------|


  E   F
e--------------------------------|
b-5-5-6-6------------------------|
g-4-4-5-5--4^-4^-4^-4^-2p0-2-0-0-|
d-2-2-3-3------------------------|
a--------------------------------|
e--------------------------------|



Solo:

e------------------5-5-6-6-5-5-4-4-5-5-6-6-7-7-8-|
b---5-7^7^7-7-5----5-5-6-6-5-5-4-4-5-5-6-6-7-7-8-|
g-7-5-7^7^7-7-5----5-5-6-6-5-5-4-4-5-5-6-6-7-7-8-|
d-7-------------7--------------------------------|
a------------------------------------------------|
e------------------------------------------------|

e----------------------------------------------|
b------------10--------------------10----------|
g----12p10---10h11p10-----12p10----10h11p10----|
d-15------12----------12--------12----------12-|
a----------------------------------------------|
e----------------------------------------------|

e-------------------------------|
b----------10-------------------|
g-12p10----10h11p10----12p10----|
d-------12----------12-------12-|
a-------------------------------|
e-------------------------------|

e-------------------------------|
b-10----------------------------|
g-11----------------------------|
d----12-12-12-12-------9h10p9---|
a----------------10p12----------|
e-------------------------------|

e------------------------------|
b------------------------------|
g------------9h10p9----9-10-12-|
d----9-10-12--------12---------|
a-12---------------------------|
e------------------------------|

e-------------------12-15-14-12-----------------|
b----------12-13-15-------------15-14-13-12-----|
g-9-11s14-----------------------------------14s-|
d-----------------------------------------------|
a-----------------------------------------------|
e-----------------------------------------------|


e-----------------------------------------------|
b-----------------------------------------------|
g-9-9-9-9-9-9-9-10-10-10-10-10-10-10-12-12-12-12|
d-----------------------------------------------|
a-7-7-7-7-7-7-7-8--8--8--8--8--8--8--10-10-10-10|
e-----------------------------------------------|


e----------------------------------------------|
b----------------------------------------------|
g-12-12-12-14-14-14-14-14-14-14-14-14-14-14-14-|
d----------------------------------------------|
a-10-10-10-12-12-12-12-12-12-12-12-12-12-12-12-|
e----------------------------------------------|


e------------------------------------------------|
b------------------------------------------------|
g-14-14-15-15-15-15-15-15-15-17-17-17-17-17-17-17|
d------------------------------------------------|
a-12-12-13-13-13-13-13-13-13-15-15-15-15-15-15-15|
e------------------------------------------------|


e--------------12-12-12-12-12-12-12--|
b------------------------------------|
g-19-19-19-19--9--9--9--9--9--9--9---|
d------------------------------------|
a-17-17-17-17------------------------|
e------------------------------------|


e-13-13-13-13-13-13-13-15-15-15-15-15-15-15-|
b-------------------------------------------|
g-10-10-10-10-10-10-10-12-12-12-12-12-12-12-|
d-------------------------------------------|
a-------------------------------------------|
e-------------------------------------------|

               E
e-17-17-17-17----------------------------|
b----------------------------------------|
g-14-14-14-14--9-9-9-9-9-9-9-9-----------|
d--------------9-9-9-9-9-9-9-9-----------|
a--------------7-7-7-7-7-7-7-7-pickslide-|
e------------------------------pickslide-|

Verse (different strumming is used
       play verse chords as much as needed)
      (also leave out the last A chords)

Fill:

e-------------5--5--5---------------------|
b--5-------5--5--5--5--5------------------|
g-----7^9--5-----------5--7^9^7p5---------|
d---------------------------------7-7-----|
a-------------------------------------3-0-|
e-----------------------------------------|



Chorus (different strumming is used)
        play chorus chrods as much as needed)


Outro:

E          E
e---------:---------------|
b---------:---------------|
g-9-----9-:---------------|
d-9-----9-:-2-2-2---2-2-2-|(repeat last
a-7-----7-:-2-2-2---2-2-2-| section as needed)
e---------:-0-0-0-1-0-0-0-|
 


----------------------------------
song #2: growing up (falling down) 
----------------------------------
tabbed by Michael Fryar


This song is in drop D tuning.
  D                        C                 D
e-------------------------------------------------------|
b-------------------------------------------------------|
g-7-7-7-7-7-7-7-7-7-7------5-5-5-5-5-5-5-----7--7-7--7-7|
d-7-7-7-7-7-7-7-7-7-7------5-5-5-5-5-5-5-----7--7-7--7-7|
a-5-5-5-5-5-5-5-5-5-5-ect--3-3-3-3-3-3-3-ect-5--5-5--5-5|
D-------------------------------------------------------|
 /palm mute..........\     /palm mute....\   


  G                   D               E
e--------------------------------------------------------|
b--------------------------------------------------------|
g--------------------7-7-7-7-7-7-------------------------|
d--------------------7-7-7-7-7-7-------------------------|
a-5-5-5-5-5-5-5------5-5-5-5-5-5-ect--2-2-2-2-2-2-2------|
D-5-5-5-5-5-5-5-ect-------------------2-2-2-2-2-2-2-ect--|
  / p a l m     m u t e............................\

  D
e----------------------------------------|
b----------------------------------------|
g-7-7-7^p5--7-7-7^p5--7-7-7^p5--7-7-7-7--|
d-7-7-------7-7-------7-7-------7-7-7-7--|
a-5-5-------5-5-------5-5-------5-5-5-5--|
D----------------------------------------|Chorus: 

  D                D Maj7            D  A
e-2-2-2-2-2-2-2-2--2-2-2-2-2-2-2-2---2---------|
b-3-3-3-3-3-3-3-3--2-2-2-2-2-2-2-2---3---------|
g-2-2-2-2-2-2-2-2--2-2-2-2-2-2-2-2---2--2------|
d-0-0-0-0-0-0-0-0--0-0-0-0-0-0-0-0---0--2-(x2)-|
a---------------------------------------0------|
D----------------------------------------------|

  B                                     A
e----------------------------------------------------|
b----------------------------------------------------|
g-4---------------4------4-4-4-4-4-4----2-2-2-2-2-2--|
d-4---------------4------4-4-4-4-4-4----2-2-2-2-2-2--|
a-2---------------2------2-2-2-2-2-2ect-0-0-0-0-0-0--|
D----------------------------------------------------|
 Growing Up Yeah!        /palm mute\Verse

Chorus


Solo:
e-------------------------------------------|
b-------------------------------------------|
g-11-11-11-11-11-11-9-9-9-7-7-7-9-9-9-11-11-|
d-------------------------------------------|
a-------------------------------------------|
D-------------------------------------------|


e--------------------------------------------------------|
b----------------10----------10-15p14-12-14^15--14-12----|
g-11^12-11-9--11----11----11--------------------------15-|
d----------------------12--------------------------------|
a--------------------------------------------------------|
D--------------------------------------------------------|

 G (x4) A (x4)   (barre chords)

e-14-14-14-14-14-14-12-12-12-10-10-10-12-12-12-15-15-15-|
b-------------------------------------------------------|
g-------------------------------------------------------|
d-------------------------------------------------------|
a-------------------------------------------------------|
D-------------------------------------------------------|


e15-17-15-14-12-------------------------------|
b---------------15-14-12----12----------------|
g------------------------14----14-11-14-------|
d---------------------------------------12----|
a------------------------------------------10-|
D---------------------------------------------|


e-----------------------------------|
b-----------------------------------|
g-----------------------------------|
d-9-10-11-12-11-10-9-------11^12-11-|
a---------------------12------------|
D-----------------------------------|

e--------------------------7-7-7-7--|
b------------------7-7-7-7----------|
g----------7-7-7-7------------------|
d--9-9-9-9--------------------------|
a-----------------------------------|
D-----------------------------------|


Follwed by:

  B                 A
e------------------------------------|
b------------------------------------|
g------------------------------------|
d------------------------------------|(x3)
a-9-9--9---9-9--9---7-7--7---7-7--7--|
D-9-9--9---9-9--9---7-7--7---7-7--7--|
 /p a l m    m u t e...............\

  G       A
e------------------|
b------------------|
g------------------|
d------------------|
a-5-5-5-5-7-7-7-7--|
D-5-5-5-5-7-7-7-7--|

 B                 A
e------------------------------------|
b------------------------------------|
g------------------------------------|
d------------------------------------|(x4)
a-9-9--9---9-9--9---7-7--7---7-7--7--|
D-9-9--9---9-9--9---7-7--7---7-7--7--|
 

Verse

Chorus


Outro: 

 B                 A
e------------------------------------|
b------------------------------------|
g------------------------------------|
d------------------------------------|(x4)
a-9-9--9---9-9--9---7-7--7---7-7--7--|
D-9-9--9---9-9--9---7-7--7---7-7--7--|

  B       A       B       A         D
e-------------------------------------2---------2-----------|
b------------------------------------3--------3---3---------|
g-----------------------------------2-------2-------2-------|
d----------------------------------0------0-----------0---s-|
a-9-9-9-9-7-7-7-7-9-9-9-9-7-7-7-7-------------------------s-|
D-9-9-9-9-7-7-7-7-9-9-9-9-7-7-7-7-------------------------s-|

 


------------------------
song #3: Secong Solution
------------------------
tabbed by John...


Intro/Riff 1 (Lightly Distorted)
NOTE!=keep fingers positioned for Bm
  bass notes    high notes
st=d u  d         u   u
e|----------------2---2-----------|
B|---3--------3---3---3-----------|
G|-4-4------4-----4---4-----------|
D|-4-4----4-----------------------|
A|-0-2--2-------------------------|
E|--------------------------------|x7, then heavily strum
       pm-------------------------|                 Bm 3 times
Oi!

Theme/Riff 2 (Crank up distortion)
NOTE!=include octave note with these chords
B5 B5 F#5 F#5 G5 G5 C5 X C5 X   x4

Verse/Riff 3
NOTE=strum palm muted notes using a down upstroke to 4/4 timing
playing the down stroke on the beat and the upstroke on the offbeat
  Bm                  C5 F#5
   d  d u d u d u d u  d d
e|-2--------------------------|
B|-5--------------------------|
G|-4--4-4-4-4-4-4-4-4--5------|
D|-4--4-4-4-4-4-4-4-4--5-4----|
A|-2--2-2-2-2-2-2-2-2--3-4----|
E|-----------------------2----| x3
    pm------------------------|
V1=Standen on a street light trying to get away,
Guilty, guilty, I hear want you say,
Counting down the hours but I haven't got the time...

V2=It was never meant to end this way,
What shot at violence I hear what you say,
Standing on a street light trying to get away...

Riff 4
NOTE=Strum last chord for 8 beats strumming bass notes then high notes and back and
forth

   B5   A5    G5  F#5    G5 A5 B5      E5 E5 F#major
V1=21st Prescient jumping on the line   on the line
V2=Guilty, guilty I hear what you say  what you say

Chorus/Riff 5
NOTE=On each chord play from the bass to high notes as shown, or work the strum out
for yourself
for example using Bm, play all chords the same way

e|-------2-2-------2-2-|
B|------3--3------3--3-|
G|-4-4-4---4-4-4-4---4-|
D|-4-4-------4-4-------|
A|-2-2-------2-2-------|
E|---------------------|
 Play half this strum for the last three notes.

Bm                                Emii
And I what I want to know, Is will I get deathrow,
Bm                   F#
Or is there a second solution,
Bm                          G        D
What I want to say, Is will I die today,
F#       F#Stab n stop      Riff 1
Or will I get, Second Solution

Riff 1

Verse

Chorus

Riff 6
Notes used before but in different neck positions
For Bm chord palm mute bass notes on beat and stab high notes on the offbeat
   Bm      B A G F#G A B
   d u       (all 5ths)
e|---7---|---------------|
B|---7---|---------------|
G|---7---|---------------|
D|-9---x4|-9-7-5-4-5-7-9-|
A|-9-----|-9-7-5-4-5-7-9-|
E|-7-----|-7-5-3-2-3-5-7-|
  pm

Leadbreak/Solo
NOTE=I've divided it into sections to make it easier to learn
                                trill
e|-----7------------------|---7h8p7----------------14-13-12-|
B|-----7-9^hold-9^-9p-----|--8------10-8-7-------12---------|
G|-------9^hold-9^-9p-7---|-9--------------9-9s12-----------|
D|-7s9------------------9-|---------------------------------|
A|------------------------|---------------------------------|
E|------------------------|---------------------------------|

e|-7-10-7------------------------|
B|--------10-7-------------------|
G|-------------9-7---9-7---------|
D|-----------------9-----9-7-9-9-|
A|-------------------------------|
E|-------------------------------|

e|---------------------------------------------|
B|----------------------------------------14---|
G|-------------------------------------15------|
D|-------------8-8-8-11-11-11-14-14-16---------|
A|-7-7-7-9-9-9---------------------------------|
E|---------------------------------------------|
 pm--------------------------------------------|

e|-7-10^p7-10p7----7-----------------------------------|
B|-7------------10---h10p7-10p7---7--------------------|
G|------------------------------9---h9p-7-9p7---7------|
D|--------------------------------------------9---h9p7-|
A|-----------------------------------------------------|
E|-----------------------------------------------------|

e|-----------------------------10----10----|
B|-----------------------------10----10----|
G|--------------------------12^---12^---12-|
D|-5p4---5p4----------------------------12-|
A|-----7-----7-5p4---5p4-------------------|
E|-----------------7-----7-----------------|
   d u d u d
e|----------------------------------------------|
B|-------------4^-------stab--------------------|
G|---------3---4^---------3-----3---------------|
D|-4-4-4-4-4------4-4-4-4-4-----4---------------|
A|-4-4-4-4-4------4-4-4-4-4-----4-strum fast----|
E|-2-2-2-2-2------2-2-2-2-2-----2-for 2 beats---|
  pm------|      pm-----------------------------|

Riff 2
x2 with guitar alone and then another 2 times with bass/drums

Verse
Lyrics from first verse

Chorus
Stop after "Will I get..."

Riff 7 (lightly distorted)
Picking
   Bm           G7   F#7
e|-------2---------------5-|
B|---------3-------------5-|
G|-----4-----4----4----3---|
D|---4------------3----2---|
A|-2--------------5----4---|
E|--------------3----2-----|x4
 Second         sol-u-tion

Riff 8 (crank up distortion)
-Pick slide-

Play really heavily
B5 B5 B5 B5 G5 G5 F5 F5 x3
l=Second   b=solution!

Riff 9
B5 B5 D5 D5 G5 G5 F5 F5
l=second  b=solution!   x3

Riff 4
Finish earlier on a B5 stab



----------------------
Song #4: west end riot
----------------------
tabbed by dave04



Intro:

guitar (play 4 times)
e--------------------7-----7-----7--|
b--8-8-8-7-7-7-8-8-8-----8-----8----|
g--9-9-9-9-9-9-9-9-9---9-----9------|
d-----------------------------------|
a-----------------------------------|
e-----------------------------------|

bass (play twice)
g-----------------------------------|
d--2-2-2----------------------------|
a-----------------------------------|
e-----------------------------------|

g-----------------------------------|
d-----------------------------------|
a--2-2-2----------------------------|
e-----------------------------------|



2nd Intro (play twice):

guitar
e-------------------------------------|
b--8-8-7-7----------------------------|
g----------9-9-7-7--------------------|
d------------------9-9-7-7------------|
a--------------------------10-10-9-9--|
e-------------------------------------|

e-----------------------------------|
b-----------------------------------|
g-----------------------------------|
d-----------------------------------|
a------2-2-3-3---------2-2-3-3------|
e--0-0---------3-2-0-0---------3-2--|

meanwhile bass plays this until the chorus:
g-----------------------------------|
d-----------------------------------|
a------2-2-3-3---------2-2-3-3------|
e--0-0---------3-2-0-0---------3-2--|



End of 2nd Intro:

guitar (let ring)

e--0--|
b--0--|
g--0--|
d--2--|
a--x--|
e--0--|

at the end of the 2nd intro, the guitar plays this and lets ring for 4 bars.
Then turn down the volume on your guitar completely and hit the high E string harmonic:

e--12*--|
b-------|
g-------|
d-------|
a-------|
e-------|

gradually turn the volume back up over the next 4 bars.

then, Pre-Mid-Verse pickup Chords:

e---------|
b---5--5--|
g---4--4--|
d---2--2--|
a---------|
e---------|

then a slight variation on the intro.  You should miss the first two notes the
first time this is played, because the chords should ring a little.  Besides, the
bass should have this concept covered.


Mid-Verse (8 times):

e-------------------|
b-------------------|
g-------------------|
d--2-2---------5-4--|
a------2-2-3-3------|
e-------------------|

Mid-Verse 2 (3 times):

e-(3)-(3)---------------------------|
b--5---5----------------------------|
g--4---4----------------------------|
d--2---x-------5-4-2-2---------5-4--|
a------2---3-3---------2-2-3-3------|
e-----------------------------------|

the top notes are unnecessary, but they certainly don't hurt.

Pre-Chorus (3 times):

"ba  -  ttleground"
e------------------|
b------------------|
g--7-----8-8-------|
d--8-----9-9-------|
a--8-----9-9-------|
e--6-----7-7-------|


bass
g------------------|
d------------------|
a------------------|
e--6-----7-7-------|

Pre-Chorus 2:

e-------------------|
b--------7-~-~-~-~--|
g------8---~-~-~-~--|
d----7-----~-~-~-~--|
a-------------------|
e--7-------~-~-~-~--|

bass
g-------------------|
d-------------------|
a--2-2-0-0----------|
e----------3-3-2-2--|

hold the chord and let all notes ring.  Now for the verse, which is the same as
the intro.  The arpeggio should match up with the first 4 notes the bass plays.

Chorus 1 (3 times):

guitar
e-------------------|
b--5----------------|
g--4---4---5--------|
d--2---4---5---5----|
a------2---3---5----|
e--------------3----|

bass
g--------------0----|
d--2----------------|
a------2---3--------|
e-------------------|

Chorus 2:

e-------------------|
b--7-7-7-7-7-7-7-7--|
g--7-7-7-7-8-8-8-8--|
d--7-7-7-7-7-7-7-7--|
a-------------------|
e-------------------|

bass
g-------------------|
d--0---0---1---1----|
a-------------------|
e-------------------|

This chorus, as a whole, is played twice (aaabaaab).  I'm not sure about the
guitar part here, as it's pretty hard to hear, but this sounds damn good if
played well.

Bridge:

This part is pretty hard, but it isn't too bad.  just get your fingers in the
proper chord positions and pick.  It's important to mute the notes properly so
they don't ring when you're doing the bass runs.  I put it all one one staff
right above the bass so the rhythm would be easy to figure out.  the rhythm isn't
that bad.

e------2-------------0---2---3---------0-~-~-~-~-------~3-~-~-~---|
b-----4~-~-4-------0---0---0----------1--~-~-~-~-------3--~-~-~---|
g----2-~-~-~-2-----0-~-~-~-~-~-------0-~-~-~-~-~------~0--~-~-~---|
d---~4-~-~-~-~-5-4-2-~-~-~-~-~------~2-~-~-~-~-~------0-~-~-~-~---|
a--2-~-~-~-~-~-----------------0-2-3-~-~-~-~-~-~-0---~2-~-~-~-~---|
e--------------------------------------------------3--~-~-~-~-~---|

bass
g------------------------------------------0---2------------------|
d------0---4---3---2-----------0-------2-------------------0------|
a--2-------------------2---2-------3-------------------2-------2--|
e--------------------------------------------------3--------------|


Bridge 2:

e------------------------------------7-xxx-7-~-~-~-~---|
b--------1-------3-------5-------7---8-xxx-8-~-~-~-~---|
g--------2-------4-------5-------7---9-xxx-9-~-~-~-~---|
d--------2-------4-------5-------7---9-xxx-9-~-~-~-~---|
a--x-0-0---0-2-2---2-3-3---3-5-5---5-7-xxx-7-~-~-~-~---|
e------------------------------------------------------|

bass
g------------------------------------------------------|
d--------2-------4-------5-------7---------------------|
a--x-0---0---2---2---3---3---5---5---7-----------------|
e----------------------------------------0-0-~-~-~-~---|


flair-solo:

e----------------------------0--|
b----------------------------0--|
g------0---2-3b4r2-0---------0--|
d--0h2---------------2---0---2--|
a----------------------------2--|
e----------------------------0--|

(b harmonic)
e-------|
b--12*--|
g-------|
d-------|
a-------|
e-------|

when the bridge repeats again, it changes in part 2.  Here is the added part.

Bridge 3 (3 times):

e------3------------|
b------3-------5----|
g------4-------5----|
d--------------5----|
a----------3-3---x--|
e--3-3---x----------|

g-------------------|
d-------------------|
a------0-2-3-3-2-0--|
e--3-3--------------|

Bridge 4:

e------3------------|
b------3------------|
g------4------------|
d-------------------|
a-------------------|
e--3-3---x-3-5-7-3--|

g-------------------|
d-------------------|
a-------------------|
e--3---3---3---3----|

Bridge 5 (twice):

e------5------------|
b------5-------7----|
g------4-------7----|
d--------------7----|
a----------5-5---x--|
e--5-5---x----------|

g-------------------|
d----------0-0------|
a--0-0-2-4-----4-2--|
e-------------------|

Bridge 6:

e------5----------------------------|
b------5-------7-----------7-7-7-7--|
g------4-------7-----------8-8-8-8--|
d--------------7-------7-7-7-7-7-7--|
a----------5-5---------x-x-x-x-x-x--|
e--5-5---x-------5-7-7-7-7-7-7-7-7--|

g-----------------------------------|
d----------0-0----------------------|
a--0-0-2-4-----4-0-2-2-2-2-2-2-2-2--|
e-----------------------------------|

e----------------------|---------------------------|
b----------------------|---------------------------|
g--9-------------------|--11-11-11-11-11-11-11-11--|
d--9-------9-------10--|--12-12-12-12-12-12-12-12--|
a--7-------9-------10--|--12-12-12-12-12-12-12-12--|
e----------7-------8---|--10-10-10-10-10-10-10-10--|

g----------------------|---------------------------|
d----------------------|--0--0--0--0--0--0--0--0---|
a----------2-------3---|---------------------------|
e--0-------------------|---------------------------|

e--8-8-8-8-8-8-8-8--|
b--7-7-7-7-7-7-7-7--|
g--8-8-8-8-8-8-8-8--|
d--7-7-7-7-7-7-7-7--|
a-------------------|
e-------------------|

g-------------------|
d--0-0-0-0-0-0-0-0--|
a-------------------|
e-------------------|


Solo chords:

the chords throughout the solo are as follows.  They are almost always in that
order but change in the middle briefly.  listen for it.  it's easy to figure out.

e--3---1----------|
b--3---1---4---3--|
g--3---2---5---2--|
d--5---3---5---4--|
a--5---3---3---0--|
e--3---1----------|

g--0--------------|
d------3---1---0--|
a-----------------|
e-----------------|


Solo:

e--------------------------3--------------------------------------|
b-----------/3----------/4---3------------------------------------|
g--0---0-2-3---3-2-0-------------------------------3-2-0----------|
d----------------------------------------0-3---0---------4-----5--|
a-----------------------------------------------------------------|
e----------------------------------3-3-3--------------------------|


e--------------------------------------10h11-10--|
b--------------------11-11-11-13-13-13-----------|
g--12-12-12-14-14-14-----------------------------|
d------------------------------------------------|
a------------------------------------------------|
e------------------------------------------------|

e--------------------15-15-15-17-17-17-17h18-17--|
b--16-16-16-18-18-18-----------------------------|
g------------------------------------------------|
d------------------------------------------------|
a------------------------------------------------|
e------------------------------------------------|

e-----------------------------------|
b---------------------------/9---8--|
g--------8---7---/10-10-8-10--------|
d--10-------------------------------|
a-----------------------------------|
e-----------------------------------|


e----10-------------/10---10--------------|
b------11---10---11---------11---10---11--|
g--12----12-10---12-----------12-10---12--|
d-----------------------------------------|
a-----------------------------------------|
e-----------------------------------------|

e--15---14---13---12---11-10---|
b------0----0----0----0--0--0--|
g----17---16---15---14---------|
d------------------------------|
a------------------------------|
e------------------------------|

e-----------------------------------|
b-----------------------------------|
g------------------2-2-2-2-5-5-5-5--|
d----------4-4-4-4-4-4-4-4-4-4-4-4--|
a--5-5-5-5-5-5-5-5-5-5-5-5-5-5-5-5--|
e-----------------------------------|

e-----------------------------------|
b--------------------x-7*7*7*7*x-x--|
g------------------5-x-7*7*7*7*x-x--|
d----------4-4-4-4-4-x--------------|
a--6-6-6-6-6-6-6-6-6-x--------------|
e-----------------------------------|

(twice)
e--0---0---0---0---0--------------|
b--8---7---5---3---0---5---5---5--|
g----------------------2---0---x--|
d------------------------------4--|
a---------------------------------|
e---------------------------------|


outro 1 (4 times):

now the bass doesn't play.

e-----------------------------------|
b-----------------------------------|
g-----------------------------------|
d------2-2--------------------------|
a--------------2-2-----3-3-----5-5--|
e--0-0-----0-0-----0-0-----0-0------|

easy stuff.
Instead of playing the last set of notes (d) on the fourth repeat,
there are chords.  See below.


interlude chords:

e---------|
b------5--|
g--7---4--|
d--7---2--|
a--5------|
e---------|

you might be thinking "I have an easier way to play these chords."  I find this
is the best way.  There's a way to play them that encourages sliding, which
completely ruins the little interlude.  

g---------|
d--0---2--|
a---------|
e---------|


outro 2:

(three times)
e------0----------------------------|
b------0-------3-------5-------7----|
g------0-------4-------5-------7----|
d--2-2---2-----4-------5-------7----|
a----------2-2---2-3-3---3-5-5---5--|
e-----------------------------------|

g-----------------------------------|
d-----------------------------------|
a----------2---2---3---3---5---5----|
e--0---0----------------------------|

skip the first chord the first time in favor of letting
the second interlude chord ring a bit longer.

e-----------------------------------|
b--8-------7-------5-~-~-~-~-~-~-~--|
g--9-------7-------4-~-~-~-~-~-~-~--|
d--9-------7-------2-~-~-~-~-~-~-~--|
a--7-------5------------------------|
e-----------------------------------|

g-----------------------------------|
d-----------------------------------|
a----------2------------------------|
e--3---------------0-~-~-~-~-~-~-~--|

finally, chorus, then the bridge again.  Then the song is over.

Final Chord:

e--7--|
b--7--|
g--7--|
d-----|
a-----|
e-----|




--------------------
song #5: bloody mary
--------------------
tabbed by Armin Klauser 


1st Intro:

    Em
e|-0-0-----------------------------|
B|-0-0-----------------------------|
G|-0-0-----------------------------|
D|-2-2-----------------------------|(x3)
A|-2-2---1-2-2-1---1-1-0---0-0-----|
E|-0-0-3---------3-------3-----3-0-|
      |...p a l m ... m u t e d...| 

    Em                          B
e|-0-0-------------------------2-|~0|
B|-0-0---------------------0-4-0-|~0|
G|-0-0-------------------2-----2-|~0|
D|-2-2---------------0-1-------1-|~2|
A|-2-2---1-2-2-1---2-----------2-|~2|
E|-0-0-3---------3---------------|~0|
       |palm muted|


2nd Intro:

e|---------------------------------|~0|
B|---------------------------------|~0|
G|---------------------------------|~0|
D|-2-2-----------------------------|~2|
A|-2-2---1-2-2-1---1-1-0---0-0-----|~2|
E|-0-0-3---------3-------3-----3-2-|~0|

e|---------------------------------|~0|
B|---------------------------------|~0|
G|---------------------------------|~0|
D|-2-2-----------------------------|~2|
A|-2-2---1-2-2-1---1-1-0---0-------|~2|
E|-0-0-3---------3-------3---3-2-1-|~0|

e|---------------------------------|~0|
B|---------------------------------|~0|
G|---------------------------------|~0|
D|-2-2-----------------------------|~2|
A|-2-2---1-2-2-1---1-1-0---0-0-----|~2|
E|-0-0-3---------3-------3-----3-2-|~0|

e|-----------------------------2-|~0|
B|-------------------------0-4-0-|~0|
G|-----------------------2-----2-|~0|
D|-2-2---------------0-1-------1-|~2|
A|-2-2---1-2-2-1---2-----------2-|~2|
E|-0-0-3---------3---------------|~0|
   

1st Verse:

e|--[0]----------------------------|
B|--[0]----------------------------|
G|---------------------------------|
D|---------------------------------|(x3)
A|-------1-2-2-1---1-1-0---0-0-----|
E|-0-0-3---------3-------3-----3-2-|
  |... p a l m  ...  m u t e d ...| 

e|--[0]--------------------------|
B|--[0]------------------1-0-----|
G|---------------------------0---|
D|-----------------------------0-|
A|-------1-2-2-1---1-1-0---------|
E|-0-0-3---------3---------------|
  |...palm ... muted....| 


Chorus:

    Am     F    G#   C
e|----0-0---1----4---------|
B|-1--1-1---1----4--5--5-5-|
G|-2--2-2---2----5--5--5-5-|
D|-2--2-2---3----6--5--5-5-|(x2)
A|-0--0-0--3----6---3--3-3-|
E|--------1----4-----------|

    Am            C
e|----------------------|~0|
B|-1------0-0-1--5------|~0|
G|-2------2-2-2--5------|~0|
D|-2(x13)-2-2-2--5(x16)-|~2|
A|-0------0-0-0--3------|~2|
E|----------------------|~0|


2nd Intro:

e|---------------------------------|~0|
B|---------------------------------|~0|
G|---------------------------------|~0|
D|-2-2-----------------------------|~2|
A|-2-2---1-2-2-1---1-1-0---0-0-----|~2|
E|-0-0-3---------3-------3-----3-2-|~0|

e|-----------------------------2-|~0|
B|-------------------------0-4-0-|~0|
G|-----------------------2-----2-|~0|
D|-2-2---------------0-1-------1-|~2|
A|-2-2---1-2-2-1---2-----------2-|~2|
E|-0-0-3---------3---------------|~0|


2nd Verse:

e|--[0]----------------------------|
B|--[0]----------------------------|
G|---------------------------------|
D|---------------------------------|(x4)
A|-------1-2-2-1---1-1-0---0-0-----|
E|-0-0-3---------3-------3-----3-2-|
  |... p a l m  ...  m u t e d ...| 

Chorus

Pre Solo:

    G  D D# F
e|-----------|
B|-----------|
G|-12-7-8-10-|
D|-12-7-8-10-|(x3)
A|-10-5-6-8--|
E|-----------|


    C             B
e|---------------2-|~0|
B|-3-------------0-|~0|
G|---5---------2-2-|~0|
D|-----5-----1---1-|~2|
A|-------3-2-----2-|~2|
E|-----------------|~0|

e|---------------------------------|~0|
B|---------------------------------|~0|
G|---------------------------------|~0|
D|-2-2-----------------------------|~2|
A|-2-2---1-2-2-1---1-1-0---0-0-----|~2|
E|-0-0-3---------3-------3-----3-2-|~0|

e|---------------------------------|
B|---------------------------------|
G|---------------------------------|
D|-2-2-------------2-2-2-2-2-2-2-2-|
A|-2-2---1-2-2-1---2-2-2-2-2-2-2-2-|
E|-0-0-3---------3-0-0-0-0-0-0-0-0-|
                   |palm ... muted|

                   or instead of pm

E|-----------------~0----~0----~0--|


Solo:

e|-------------------------------------|
B|------5^---5^-------5^-----------------|
G|------5^---5^-3h5p3-5^-3h5p3^----------|
D|------------------------------5p3h5--3-|
A|---------------------------------------|
E|-3-3-----------------------------------|

e|----------------------------|
B|----------------------------|
G|----------------------------|
D|-5p3------------------------|
A|-----h5p3-5p3-----3---------|
E|-------------h6p3---6-3-2-1-|

e|---------------------------------|
B|---------------------------------|
G|------------------5-8-7h8p7p5--3-|
D|----------s6--5-3----------------|
A|-3--5-5s6------------------------|
E|---------------------------------|

e|----------11-10-11----12^---12^-14^-13----13-^15-|
B|-13-15-13------------------------------15--------|
G|-12----------------------------------------------|
D|-------------------------------------------------|
A|-------------------------------------------------|
E|-------------------------------------------------|

e|-------10-9----------|
B|----11-----------6-5-|
G|-12------------3-----|
D|-------------5-------|
A|---------------------|
E|---------------------|

e|-5p3p2p0--------------------------|
B|--------3p2p0-----4p2p0-----------|
G|-------------3p2p0-----4p2p0------|
D|----------------------------4p2p0-|
A|----------------------------------|
E|----------------------------------|
 |...I'm not sure about that part...|

    D
e|------------------------------------------|
B|------------------------------------------|
G|-7-7-7-6-6-6-6-66h7-7-7-7-7h8-8-8-8-8p7-7-|
D|-7-7-7-6-6-6-6-66h7-7-7-7-7h8-8-8-8-8p7-7-|(x3)
A|-5-5-5-5-5-5-5-55---5-5-5-5---5-5-5-5---5-|
E|------------------------------------------|

                        F
e|----------------------------|
B|----------------------------|
G|-7-7-7-6-6-6-6-66h7--11-----|
D|-7-7-7-6-6-6-6-66h7--11(x8)-|
A|-5-5-5-5-5-5-5-55----9------|
E|----------------------------|

e|-----10------------10-------------10-----------------|
B|-s10----10-~9---10----10-~11---10----10-~9-----6-----|
G|-----------------------------------------------5-----|
D|-----------------------------------------------3(x8)-|
A|-----------------------------------------------------|
E|-----------------------------------------------------|

    Gm
e|---------------------------------|
B|---------------------------------|
G|---------------------------------|
D|-5-5-----------------------------|(x2)
A|-5-5---4-5-5-4---4-4-3---3-3-----|
E|-3-3-6---------6-------6-----6-3-|


3rd Verse:

    Gm
e|-3-3-| |---------------------------------|
B|-3-3-| |---------------------------------|
G|-3-3-| |---------------------------------|
D|-5-5-| |-5-5-----------------------------|
A|-5-5-| |-5-5---4-5-5-4---4-4-3---3-3-----|
E|-3-3-| |-3-3-6---------6-------6-----6-3-|

    Gm
e|-3-3-| |-----------------------|
B|-3-3-| |-----------------------|
G|-3-3-| |-----------------9-----|
D|-5-5-| |-5-5-------------9(x8)-|
A|-5-5-| |-5-5---4-5-5-4---7-----|
E|-3-3-| |-3-3-6---------6-------|

Chorus

Outro:

    G  D D# F
e|-----------|
B|-----------|
G|-12-7-8-10-|
D|-12-7-8-10-|(x3)
A|-10-5-6-8--|
E|-----------|

    D       F6
e|-----------------|
B|---------------6-|
G|-7-7-7-------7---|
D|-7-7-7-----7-----|
A|-5-5-5-7-8-------|
E|-----------------|

    G  D D# F
e|-----------|
B|-----------|
G|-12-7-8-10-|
D|-12-7-8-10-|(x3)
A|-10-5-6-8--|
E|-----------|

    C             B  Em
e|---------------2--0-|
B|-3-------------0--0-|
G|---5---------2-2--0-|
D|-----5-----1---1--2-|
A|-------3-2-----2--2-|
E|------------------0-|

End



---------------
song #6: monday
---------------
tabbed by Jason Zarpellon



Intro: x2

          E                                      B
e-------I--------------------------------------I-----------------------------------I
b-------I--------------------------------------I-----------------------------------I
g-------I--9---------------------------------9-I-----------------------------------I
d-------I--9---------------------------------9-I-9---------------------------------I
a----7--I--7--7--7-7--7-7--7-7--7-7--7-7--7--7-I-9---------------------------------I
e--0-0--I--------------------------------------I-7--7--7-7--7-7--7-7--7-7--7-7--7-7I
             pm pm pm pm pm pm pm pm pm pm        pm pm pm pm pm pm pm pm pm pm pm
   
   A                                    B
e-------------------------------------I---------------------------------------I
b-------------------------------------I---------------------------------------I
g-------------------------------------I---------------------------------------I
d--7--------------------------------7-I-9-------------------------------------I
a--7--------------------------------7-I-9-------------------------------------I
e--5--5--5-5--5-5--5-5--5-5--5-5--5-5-I-7--7--7-7--7-7--7-7--7-7--7-7--7-7--7-I
  
     pm pm pm pm pm pm pm pm pm pm         pm pm pm pm pm pm pm pm pm pm pm pm


Verse: x2

E,B,A


Pre Chorus: All up strokes

   C#           G#           F#           G#  A  B B
e--4--4--4--4-I-4--4--4--4-I-2--2--2--2-I-4-----------I
b--5--5--5--5-I-4--4--4--4-I-2--2--2--2-I-4-----------I
g--6--6--6--6-I-5--5--5--5-I-3--3--3--3-I-5---2--4-4--I
d--6--6--6--6-I-6--6--6--6-I-4--4--4--4-I-6---2--4-4--I
a--4--4--4--4-I-6--6--6--6-I-4--4--4--4-I-6---0--2-2--I
e-------------I-4--4--4--4-I-2--2--2--2-I-4-----------I

Chorus:

  E Eb C# B  A   B 
e----------I----------
b----------I----------
g--9-8-6-4-I-2-2-4-4--   x2
d--9-8-6-4-I-2-2-4-4--
a--7-6-4-2-I-0-0-2-2--
e--0-0-----I----------

   A         B            E   Eb  C# B   A       B      E
e--0-0-0-0-I-----------I----------4----I----------------0--I
b--0-0-0-0-I-4--4--4-4-I----------5--4-I--------------4-0--I
g--2-2-2-2-I-4--4--4-4-I--9-9-8-8-6--4-I-2----2--4----4-1--I
d--2-2-2-2-I-4--4--4-4-I--9-9-8-8-6--4-I-2----2--4----4-2--I
a--0-0-0-0-I-2--2--2-2-I--7-7-6-6-4--2-I-0----0--2----2-2--I
e----------I-----------I--0-0-0-0------I----------------0--I

Intro: 

Verse: 

Pre Chorus:

Chorus:

Pre Solo:

                           C#    C
e--4-4---------4-4------------I------------------I
b------5-5---------5-5--------I--5--5--5---5-5---I
g----------6-6---------6-6-6--I--5--5--5---5-5---I
d--------------------------6--I--5--5--5---5-5---I
a--------------------------4--I--3--3--3---3-3---I
e-----------------------------I------------------I

                                Ab  Abd  Ab
e--4-4---------4-4------------I--4---4---4-----I
b------5-5---------5-5--------I--4---4---4-----I
g----------6-6---------6-6-6--I--5---5---5-----I
d--------------------------6--I--6---6---6-----I
a--------------------------4--I--6---6---6-----I
e-----------------------------I--4---5---4-----I

   A     B       Ab       C#  B     A          B
e--0---0-------I-4-4---4----------I---------------I------I
b--0---0-4---4-I-4-4---4----------I---------------I--12--I
g--2---2-4---4-I-5-5---5--6-6-4-4-I-2-2--2--2--4--I--11^-I
d--2---2-4---4-I-6-6---6--6-6-4-4-I-2-2--2--2--4--I------I
a--0---0-2---2-I-6-6---6--4-4-2-2-I-0-0--0--0--2--I------I
e--------------I-4-4---4----------I---------------I------I

Solo:

e-------------------------------------------------------------I
b-------------------------------------------------------------I
g-----------------2--2------------4--4-------------5--5--7-7--I  x2
d--2-2------------2--2----2-4p2p0-4--4----4-6p4p0--5--5--7-7--I
a--2-2----2-4p2p0-0--0--4---------2--2--6----------3--3--5-5--I
e--0-0--4-----------------------------------------------------I

e----------------------I-------------------------------I---------------------12-9-------I
b--12---12---12--------I-------------------------------I--------------------------10----I
g--11^--11^--11^v^-9~--I--7^---------------------------I----6-9-11^v--9h11h9---------9~-I
d----------------------I-----9-9---7h9p7-7---7---------I-s7-----------------------------I
a----------------------I-------------------9---9-9s7-5-I--------------------------------I
e----------------------I-------------------------------I--------------------------------I

e--------------------------------------I----------12-12----12--I
b--0-0-0-0-4-0-0-5-0-0-7-0-0-8-0-0-9-0-I-12-12-12-------14-----I
g--------------------------------------I-----------------------I
d--------------------------------------I-----------------------I
a--------------------------------------I-----------------------I
e--------------------------------------I-----------------------I

This next bit is extremly fast

e--16p12----14p12----16p12----14p12----16p12----14p12----16p12----14p12-----I
b--------12-------12-------12-------12-------12-------12-------12-------12--I
g---------------------------------------------------------------------------I
d---------------------------------------------------------------------------I
a---------------------------------------------------------------------------I
e---------------------------------------------------------------------------I

e------14----------------I-----12----12----12----12-------------I
b--14^----14^--14^v^-12--I--12----12----12----12----------------I
g------------------------I--14^---14^---14^---14^---14^v-12-----I
d------------------------I----------------------------------14--I
a------------------------I--------------------------------------I
e------------------------I--------------------------------------I

Another little quick bit

e--7p5p4-5p4---4------------------------------I
b------------7---7p5-7p5p4-5p4p2-4p2p0-2p0----I
g------------------------------------------2--I
d---------------------------------------------I
a---------------------------------------------I
e---------------------------------------------I

Bridge:

e--0--0--0-0-0-0----------------I
b--5--4--2-2-0-0-2-2-2-2-4-4-4-4I
g----------------2-2-----4-4----I x2
d-------------------------------I
a-------------------------------I
e-------------------------------I


e-----------------------I---------------------------------I
b--2--2--3--4---4--4-4--I---------------------------------I
g--2--2-----------------I--9---8---6---4--2-2---2-4-4---4-I
d-----------------------I--9---8---6---4--2-2---2-4-4---4-I
a-----------------------I--7---6---4---2--0-0---0-2-2---2-I
e-----------------------I--0---0---0----------------------I

"No school today..."

e--4-------------------------------------4-------------------------------------I
b--5-------------------------------------4-------------------------------------I
g--6-------------------------------------5-------------------------------------I
d--6-------------------------------------6-------------------------------------I
a--4--4--4-4--4-4--4-4--4-4--4-4--4-4--4-6-------------------------------------I
e----------------------------------------4--4--4-4--4-4--4-4--4-4--4-4--4-4--4-I
     pm pm pm pm pm pm pm pm pm pm pm pm    pm pm pm pm pm pm pm pm pm pm pm pm

e----2---2---2---2--4-4----------I
b----2---2---2---2--4-4----------I
g----3---3---3---3--5-5----------I
d--4-4-4-4-4-4-4-4--6-6----7--9--I
a--4-4-4-4-4-4-4-4--6-6----7--9--I
e--2-2-2-2-2-2-2-2--4-4----5--7--I

Chorus:

Outro:

"Monday, it seems like such a lie"

e------------------------------------I
b--------------------12--12--12------I
g--2-2---2--4-4--4---11^-11^-11^v^-9-I
d--2-2---2--4-4--4-------------------I   x2
a--0-0---0--2-2--2-------------------I
e------------------------------------I


"Monday, it's just a lie"

e--------------------------0--I
b--------------------------0--I
g--2-2---2--4--4--4--------1--I
d--2-2---2--4--4--4--5^----2--I
a--0-0---0--2--2--2--5^----2--I
e--------------------3^----0--I



----------------------
song #7: all torn down
----------------------
tabbed by Marko



Intro:  

                         
e---------------------------------------------------|
b---------5-----------------5-----------------5-----|
g-----6-----6-----------6-----6-----------6-----6---|
d---6---6-----6-------6---6-----6-------6---6-----6-|
a-4-------------------------------------------------|
e----------------0-5---------------0-4--------------|
 / p a l m     m u t e d...........................

  
e----------------------|
b-----------4----------|
g-------5-----5--------|
d-----6---6-----6------|(x2)
a------------------4s6-|
e-4-4------------------|
  ......................\

                        
e---------------------------------------------------|
b---------5-----------------5-----------------5-----|
g-----6-----6-----------6-----6-----------6-----6---|
d---6---6-----6-------6---6-----6-------6---6-----6-|
a-4-------------------------------------------------|
e----------------0-5---------------0-4--------------|
 
 
e----------------------|
b-----------4----------|
g-------5-----5--------|
d-----6---6-----6------|
a------------------4s6-|
e-4-4------------------|
 

                          
e---------------------------------------------------|
b---------5-----------------5-----------------5-----|
g-----6-----6-----------6-----6-----------6-----6---|
d---6---6-----6-------6---6-----6-------6---6-----6-|
a-4-------------------------------------------------|
e----------------0-5---------------0-4--------------|
 / p a l m     m u t e d...........................

  
e-------------4-4-4--|
b-----------4-4-4-4--|
g---------5-5-5-5-5--|
d-------6-6-6-6-6-6--|(x2)
a-----6-6-6-6-6-6-6--|
e-4-4-4-4-4-4-4-4-4--|
  ......................\
  
 
  
e-------------------------------------5--------------|
b----------------9-9s7-7s5-5---------5-5-------------|
g-6-6--4--6--6----------------------6---6--8^--8^-8-6|(x2)
d-6-6--4--6--6---6-6s4-4s2-2---7---7-----------------|
a-4-4--2--4--4-----------------7--7------------------|
e------------------------------5-5-------------------|




Verse: *upwards ska strum pattern*

 
e--4-4-4-4-4-4-4-4--5-5-5-5-5-5-5-5--|
b--5-5-5-5-5-5-5-5--5-5-5-5-5-5-5-5--|
g--6-6-6-6-6-6-6-6--6-6-6-6-6-6-6-6--|
d--6-6-6-6-6-6-6-6--7-7-7-7-7-7-7-7--|(x2)
a--4-4-4-4-4-4-4-4--7-7-7-7-7-7-7-7--|
e-------------------5-5-5-5-5-5-5-5--|

                  
e---------0----------------------|
b--------0-0---------------------|
g-------1---1--------------------|
d--2---2-----2------6-6-6-6-6-6--|
a--2--2-------------6-6-6-6-6-6--|
e--0-0--------------4-4-4-4-4-4--|
                   

Repeat from start of verse again.


Chorus:
  
e-----------0--------0------------------0-----------------|
b-----------0--0------0-----------------0-----------------|
g-2-2--4-4--1--1---1---1------2-2--4-4--1--9-9s8-8s6-6s4--|
d-2-2--4-4--2----2------------2-2--4-4--2-----------------|
a-0-0--2-2--2-----------------0-0--2-2--2--7-7s6-6s4-4s2--|
e-----------0---------------------------0-----------------|
  all torn down...

 
e-----------4--|
b-----------5--|
g-2-2--4-4--6--|
d-2-2--4-4--6--|
a-0-0--2-2--4--|
e--------------|


Verse 

Chorus

Pre Solo:   

  
e------4-------4--------0-------2----|
b----5-5-5---5-5-5----2-2-2---4-4-4--|
g--6-6-6-6-6-6-6-6--2-2-2-2-4-4-4-4--|
d--6-6-6-6-6-6-6-6--2-2-2-2-4-4-4-4--|(x2)
a--4-4-4-4-4-4-4-4--0-0-0-0-2-2-2-2--|
e------------------------------------|
    You got no reason . . . . . 

                  
e---------0----------------------|
b--------0-0---------------------|
g-------1---1--------------------|
d--2---2-----2------6-6-6-6-6-6--|
a--2--2-------------6-6-6-6-6-6--|
e--0-0--------------4-4-4-4-4-4--|

Solo:

e-----------------------------------------|
b-----------------------------------------|
g---6-4-------------6-4---------------6-4-|
d-------6-7-6-4---------6-7-6-4-----------|
a-4-------------7-4-------------7---------|
e-----------------------------------5-----|


e--------------------------------------------------|
b--------------------------------------------------|
g----------------------------------4~---4-6-6p4-6--|
d-6-7-6---7-6--7-6---7-6-----7-6-7---6-------------|
a-------4----4-----4----7--4-----------------------|
e--------------------------------------------------|


e--------------------4-5-7--9-7-9-11-12-11~-|
b--------4-5-7-4-5-7------------------------|
g--6p4-6------------------------------------|
d-------------------------------------------|
a-------------------------------------------|
e-------------------------------------------|

e-9~-----9--11--9h11p9---------------------------------------|
b----9~--9--------------9-----------------10-9----10-9-------|
g--------------------------9---------------------------------|
d-------------------------------11-11-9-11-----11------11----|
a------------------------------------------------------------|
e------------------------------------------------------------|


e-----------------------------------9-------------------------------------------------|
b-10-9-----10-9-----10-9h10h9---------12p9--------------------------------------------|
g------------------------------9-----------11p9----11p9------11^-11-9-----------------|
d-------11-------11-----------------------------11------11-9----------11-9-11--11-9-11|
a-------------------------------------------------------------------------------------|
e-------------------------------------------------------------------------------------|


e--------------------------------------|
b-----------------------7-s-9-s-10-----|
g--------------------------------------|
d-11-11s9-9s7-7--7------4-s-6-s-7------|
a--------------------------------------|
e-9--9-s7-7s5-5--5---------------------|

 
e--4-4-4-4-4-4-4-4--5-5-5-5-5-5-5-5--|
b--5-5-5-5-5-5-5-5--5-5-5-5-5-5-5-5--|
g--6-6-6-6-6-6-6-6--6-6-6-6-6-6-6-6--|
d--6-6-6-6-6-6-6-6--7-7-7-7-7-7-7-7--|
a--4-4-4-4-4-4-4-4--7-7-7-7-7-7-7-7--|
e-------------------5-5-5-5-5-5-5-5--|
                                          * *
e--4-4-4-4-4-4-4-4--5-5-5-5-5-5-5-5-5-5---(5)--|
b--5-5-5-5-5-5-5-5--5-5-5-5-5-5-5-5-5-5---(5)--|
g--6-6-6-6-6-6-6-6--6-6-6-6-6-6-6-6-6-6---(5)--|(x2)
d--6-6-6-6-6-6-6-6--7-7-7-7-7-7-7-7-7-7---(5)--|
a--4-4-4-4-4-4-4-4--7-7-7-7-7-7-7-7-7-7---(5)--|
e-------------------5-5-5-5-5-5-5-5-5-5---(5)--|

(** little harmonic strum)

e--4-4-4-4-4-4-4-4--5-5-5-5-5-5-5-5--|
b--5-5-5-5-5-5-5-5--5-5-5-5-5-5-5-5--|
g--6-6-6-6-6-6-6-6--6-6-6-6-6-6-6-6--|
d--6-6-6-6-6-6-6-6--7-7-7-7-7-7-7-7--|
a--4-4-4-4-4-4-4-4--7-7-7-7-7-7-7-7--|
e-------------------5-5-5-5-5-5-5-5--|

                  
e---------0----------------------|
b--------0-0---------------------|
g-------1---1--------------------|
d--2---2-----2------6-6-6-6-6-6--|
a--2--2-------------6-6-6-6-6-6--|
e--0-0--------------4-4-4-4-4-4--|
  
e-----------0--------0------------------0-----------------|
b-----------0--0------0-----------------0-----------------|
g-2-2--4-4--1--1---1---1------2-2--4-4--1--9-9s8-8s6-6s4--|
d-2-2--4-4--2----2------------2-2--4-4--2-----------------|
a-0-0--2-2--2-----------------0-0--2-2--2--7-7s6-6s4-4s2--|
e-----------0---------------------------0-----------------|
  all torn down...

e---------|-----4-------4--------0-------2----|
b---------|---5-5-5---5-5-5----2-2-2---4-4-4--|
g-2-2-4-4-|-6-6-6-6-6-6-6-6--2-2-2-2-4-4-4-4--|
d-2-2-4-4-|-6-6-6-6-6-6-6-6--2-2-2-2-4-4-4-4--|(x4)
a-0-0-2-2-|-4-4-4-4-4-4-4-4--0-0-0-0-2-2-2-2--|
e---------|-----------------------------------|
           You got no reason . . . . . 

e--------------------|
b--------------------|
g--------------------|
d-6-6-6-6-6-6-6-6-6--|
a-6-6-6-6-6-6-6-6-6--|
e-4-4-4-4-4-4-4-4-4--|

(drum fill)

e-----4-------4-------4-----2-------0-------0-------0-------2-|
b---5-5-5---5-5-5---5-5-5-4-4-4---2-2-2---2-2-2---2-2-2---4-4-|
g-6-6-6-6-6-6-6-6-6-6-6-6-4-4-4-2-2-2-2-2-2-2-2-2-2-2-2-2-4-4-|
d-6-6-6-6-6-6-6-6-6-6-6-6-4-4-4-2-2-2-2-2-2-2-2-2-2-2-2-2-4-4-|(x2)
a-4-4-4-4-4-4-4-4-4-4-4-4-2-2-2-0-0-0-0-0-0-0-0-0-0-0-0-0-2-2-|
e-------------------------------------------------------------|



e---------------------------------------------------|
b---------5-----------------5-----------------5-----|
g-----6-----6-----------6-----6-----------6-----6---|
d---6---6-----6-------6---6-----6-------6---6-----6-|
a-4-------------------------------------------------|
e----------------0-5---------------0-4--------------|
  
e----------------------|
b-----------4----------|
g-------5-----5--------|
d-----6---6-----6------|(x2)
a------------------4s6-|
e-4-4------------------|

(gradually get slower)

e-------------4-|
b------------5--|
g-----6-----6---|
d---6---6--6----|
a-4-------4-----|
e---------------|

The End


---------------------
song #8: save the day
---------------------
tabbed by unforgiven@paradise.net.nz



Intro riff:
   |-------5-5--------------------------------|
   |----------7---------------7b--------------|
   |-----------7--------7-7-7-7b--7-x-8-8-----|
   |-7-7-7-------7-x-5--7-7-7-----7-x-8-8-10--| 
   |-7-7-7-------7-x-5--5-5-5-----5-x-6-6-10--|
   |-5-5-5-------5-x-3---------------------8--|
    
   Verse riff part one (twice):
   |------------------------------------------------------|
   |------------------------------------------------------|
   |------------------------------------------------------|
   |--7-7-7-7-7-7-7-7-7-7-7-7-7-7-7-7-7-7-7-7-7-7-7-7-7-7-|
   |--7-7-7-7-7-7-7-7-7-7-7-7-7-7-7-7-7-7-7-7-7-7-7-7-7-7-|
   |--5-5-5-5-5-5-5-5-5-5-5-5-5-5-5-5-5-5-5-5-5-5-5-5-5-5-|
   pm .. .   . .   . .   . .   . ..   .. .   . .
    
   Verse riff part two:
   |------------------------------------------------------|
   |------------------------------------------------------|
   |------------------------------------------------------|
   |--3-3-3-3-3-3-3-3-3-3-3-3-3-3-3-3-3-3-3-3-3-3-3-3-3-3-|
   |--3-3-3-3-3-3-3-3-3-3-3-3-3-3-3-3-3-3-3-3-3-3-3-3-3-3-|
   |--1-1-1-1-1-1-1-1-1-1-1-1-1-1-1-1-1-1-1-1-1-1-1-1-1-1-|
   pm .. .   . .   . .   . .   . ..         . .   . ..   . .
    
   Verse riff part three:
   |------------------------------------------------------|
   |------------------------------------------------------|
   |------------------------------------------------------|
   |--3-3-3-3-3-3-5-5-5-5-5-5-5-7-7-7-7-7-7-7-7-7-7-7-7-7-|
   |--3-3-3-3-3-3-5-5-5-5-5-5-5-7-7-7-7-7-7-7-7-7-7-7-7-7-|
   |--1-1-1-1-1-1-3-3-3-3-3-3-3-5-5-5-5-5-5-5-5-5-5-5-5-5-|
   pm .. .   ..                     .. .   . .   . .   . .
    
   Chorus riff:
   |--------------------------------------|
   |--------------------------------------|
   |--5-5-5-5-5-5-5-5-5-5-5-5-5-5-5-5-5-5-|
   |--5-5-5-5-5-5-5-5-5-5-5-5-5-5-5-5-5-5-|
   |--3-3-3-3-3-3-3-3-3-3-3-3-3-3-3-3-3-3-|
   |--------------------------------------|
    
   |-------------------------------------------|
   |-------------------------------------------|
   |-------------------------------------------|
   |-3-3-3-3-3-3-3-3-3-3-3-5-5-5-5-5-5-5-5-5-5-|
   |-3-3-3-3-3-3-3-3-3-3-3-5-5-5-5-5-5-5-5-5-5-|
   |-1-1-1-1-1-1-1-1-1-1-1-3-3-3-3-3-3-3-3-3-3-|
    
   Bridge riff part one (4 times):
   |-------------------------|
   |-------------------------|
   |--5-5-5-5-5-5-5-5-5-5-5--|
   |--5-5-5-5-5-5-5-5-5-5-5--|
   |--3-3-3-3-3-3-3-3-3-3-3--|
   |-------------------------|
   pm       .. . . . . . . . 
    
   |-------------------------------------|
   |-------------------------------------|
   |--5----------------------------------|
   |--5---5h7-5-3-2-0---3p2-0------------|
   |--3---------------3-------3---0-2-5--|
   |----------------------------3--------|
    
   |------3h5-3-1-0-----1p0--------------|
   |----------------3-1-----3-1---0-1-3--|
   |--5-------------------------2--------|
   |--5----------------------------------|
   |--3----------------------------------|
   |-------------------------------------|
    
   Play this bit twice:
   |-------------------------------------------------|
   |-------------------------------------------------|
   |-------------------------7-7-7-7-7-7-7-x-8-8-----|
   |-7-7-7-7-7-7-7-7-x-5-5-5-7-7-7-7-7-7-7-x-8-8-10--|
   |-7-7-7-7-7-7-7-7-x-5-5-5-5-5-5-5-5-5-5-x-6-6-10--|
   |-5-5-5-5-5-5-5-5-x-3-3-3----------------------8--|
   pm      .. . . ..               .. . . . 
    
   |-------------------------------------------------|
   |-------------------------------------------------|
   |-------------------------------------------------|
   |--7----------------------------------------------|
   |--7----------------------------------------------|
   |--5----0-0-0-0-0-0-0-0-0-0-0-0--x/x--------------|
   harm.   .. . . . . . . . . . . .
    
   Final riff:
   |--------3---1---0-------0-----------------0-0-0--|
   |--------------------3---1-----------------2-2-2--|
   |--5---------------------2-----------------2-2-2--|
   |--5--5------------------2-----------------2-2-2--|
   |--3---------------------0-----------------0-0-0--|
   |-------------------------------------------------|




----------------
song #9: trapped
----------------
tabbed by  Fritz___ (Mick Fryar)



Verse: *all up strokes*

  G        Bm       C        D
e-2-2-2-2--2-2-2-2--0-0-0-0--2-2-2-2--|
b-2-2-2-2--3-3-3-3--2-2-2-2--3-3-3-3--|
g-0-0-0-0--3-3-3-3--x-x-x-x--2-2-2-2--| repeat as needed
d-x-x-x-x--x-x-x-x--x-x-x-x--x-x-x-x--|
a-x-x-x-x--x-x-x-x--x-x-x-x-----------|
e-x-x-x-x-----------------------------|

  E        D        Bm       C(repeat this C progression)
e-0-0-0-0--2-2-2-2--2-2-2-2---------------------|
b-0-0-0-0--3-3-3-3--3-3-3-3---------------------|
g----------2-2-2-2--2-2-2-2----5----------------|
d--------------------------------5-----3--5-5-3-|
a----------------------------3-----3-5----------|
e-----------------------------------------------|

  C  D  C  D
e-0--2--0--2--|
b-2--3--1--3--|
g-0--2--0--2--|
d-2--0--2--0--|
a-3-----3-----|
e-------------|



Chorus:

  G          Bm         C          Eb          F
e-----3-3-3------2-2-2------------------------------|
b-----3-3-3------3-3-3------5-5-5-------------------|
g-----0-0-0--4-4-4-4-4--5-5-5-5-5--8-8-8-x-x-x-10-10|
d-0-0-0-0-0--4-4-4-4-4--5-5-5-5-5--8-8-8-x-x-x-10-10|(x2)
a-3-2-2-2-2--2-2-2-2-2--3-3-3-3-3--6-6-6-x-x-x-8--8-|
e-3-3-3-3-3-----------------------------------------|



Verse

Chorus

Bridge/Solo: 
  F                          G#
e-1-1~--1-1~--1-1~--1-1~--3--4-4~--4-4~--4-4~--4-4~--|
b-1-1~--1-1~--1-1~--1-1~--3--4-4~--4-4~--4-4~--4-4~--|
g----------------------------------------------------|
d----------------------------------------------------|
a----------------------------------------------------|
e----------------------------------------------------|
  B
e-7-7~--7-7~--7-7~--7-7~--7-7~--7-7~--7-7~--7-7~-7-5s-|
b-7-7~--7-7~--7-7~--7-7~--7-7~--7-7~--7-7~--7-7~------|
g-----------------------------------------------------|
d-----------------------------------------------------|
a-----------------------------------------------------|
e-----------------------------------------------------|


Verse (only G , Bm , C , D part of verse)
      played at a faster tempo.



then you play the verse again but like this:

  G                   Bm                
e---3---3---3---3---3---2---2---2---2---2-|
b-3---3---3---3---3---3---3---3---3---3---|
g-----------------------------------------|
d-----------------------------------------|
a-----------------------------------------|
e-----------------------------------------|

  C                   Eb          F
e---0---0---0---0---0-------------------|
b-1---1---1---1---1---------------------|
g----------------------8-8-8-x-x-10-10--|
d----------------------8-8-8-x-x-10-10--|
a----------------------6-6-6-x-x-8--8---|(x2)
e---------------------------------------|


Outro:

  B A  C# C E Eb G  F# G  F#  G  F#
e------------------------------------|
b------------------------------------|
g-4-2--6-5--9-8--12-11-12-11-12-11---|
d-4-2--6-5--9-8--12-11-12-11-12-11---|
a-2-0--4-3--7-6--10-9--10-9--10-9----|
e------------------------------------|

  G
e-2-2-2-------3-3--|
b-2-2-2-------3-3--|
g-0-0-0-------0-0--|
d-0-0-0--(x3)-0-0--|
a-2-2-2-------2-2--|
e-3-3-3-------3-3--|



-----------------------------
song #10: have they forgotten
-----------------------------
tabbed by Mick Fryar



Intro: 

  E
e----------------------------------------|
b----------------------------------------|
g-9-9--9-----9-9--9-----9-9--9---------9-|
d-9-9--9-----9-9--9-----9-9--9---------9-|
a-7-7--7-----7-7--7-----7-7--7---------7-|
e----------------------------------------|


 Main Riff:
e-------------------------------------------|
b-------------------------------------------|
g-------------------------------------------|
d------------7------------------------------|
a-7-10-9-7-----10-9-(x3)----7-10-9-7-5-3-2--|
e----------7------------------------------3-|

Verse: 

  E                           B
e-------------------------------------------------------|
b-------------------------------------------------------|
g-9-9-9--9-9-9--9-9-9--9-9-9----------------------------|
d-9-9-9--9-9-9--9-9-9--9-9-9--9-9-9--9-9-9--9-9-9--9-9-9|
a-7-7-7--7-7-7--7-7-7--7-7-7--9-9-9--9-9-9--9-9-9--9-9-9|
e-----------------------------7-7-7--7-7-7--7-7-7--7-7-7|
 / p a l m     m u t e d................................\
 
  E                           A
e-------------------------------------------------------|
b-------------------------------------------------------|
g-9-9-9--9-9-9--9-9-9--9-9-9----------------------------|
d-9-9-9--9-9-9--9-9-9--9-9-9--7-7-7--7-7-7--7-7-7--7-7-7|
a-7-7-7--7-7-7--7-7-7--7-7-7--7-7-7--7-7-7--7-7-7--7-7-7|
e-----------------------------5-5-5--5-5-5--5-5-5--5-5-5|
/ p a l m     m u t e d................................\
  B
e---------7-7-7-7------|
b---------7-7-7-7------|
g---------8-8-8-8------|
d-9-9-9-9-9-9-9-9------|
a-9-9-9-9-9-9-9-9------|
e-7-7-7-7-7-7-7-7-8-9--|

e------------------------------------|
b------------------------------------|
g------------------------------------|
d------------7-----------------------|
a-7-10-9-7-----10-9--7-10-9-7-5-3-2--|
e----------7-----------------------3-|

Repeat Verse


Chorus: 
                
  G    D      E
e---2------2----0------------0--|
b---2------3----0-----------0---|
g---0------2----1----------1----|
d---0--0-0-0----2---2-----2-----|(x2)
a-2-2-----------2---2----2------|
e-3-3---------0-0-0-0-0-0-------|

  C    D    G    F#   E
e------2-2--2-2--4-4---------0-|
b-5-5--3-3--2-2--4-4--------0--|
g-5-5--2-2--0-0--3-3-------1---|
d-5-5--0-0--0-0--4-4--2---2----|
a-3-3-------2-2--4-4--2--2-----|
e-----------3-3--2-2--0-0------|

  E  B  C  D
e----------2--|
b----------3--|
g----4--5--2--|
d-2--4--5--0--|
a-2--2--3-----|
e-0-----------|

e------------------------------------|
b------------------------------------|
g------------------------------------|
d------------7-----------------------|
a-7-10-9-7-----10-9--7-10-9-7-5-3-2--|
e----------7-----------------------3-|

 Verse

 Chorus

 Then,

E-------7---9~---|
b-------7---11~--|
g---8---8---11~--|
d---8---8---11~--|
a---7---7---9~---|
e----------------|

 Bridge:

e------------------------------------------|
b----5--------5-------5--------------------|
g------5-4------5-4-----5-4----------------|
d------------------------------------------|
a----------------------------7-7-5-5-3-3-2-|
e-0---------2-------3----------------------|


e---------------------------------------|
b---5-------5-------5-------------------|
g-----5-4-----5-4-----5-4---------------|
d---------------------------------------|
a-------------------------7-7-5-5-3-3-2-|
e-0-------2-------3---------------------|


e----------------------------------------------|
b---5---5---5---5--5---5-----------------------|
g-2---2---2---2---2---2---2--4s5-5--------5s8--|
d----------------------------4s5-----5----xsx--|
a----------------------------2s3---3---3--3s6--|
e----------------------------------------------|
 /p a l m   m u t e d......\

       
 
Solo:

e-0s0-0-0-----:---------------|
b-3s5-3-1-----:---------------|
g---------0-2-:-2~2-0---------|
d-------------:-------2~-2~-0-|
a-------------:---------------|
e-------------:---------------|


e----------------3p1------:-------------3^3^3^-:-|
b----------2p0-3-----3-1~-:---------2p0--------:-|
g------0h2----------------:-----0h2------------:-|
d--0h2--------------------:-0h2----------------:-|
a-------------------------:--------------------:-|
e-------------------------:--------------------:-|

e--7-7-7-7--8-8-8-8--9-9-9-9-10-10-10-10-12^-10-12-14^-|
b--7-7-7-7--8-8-8-8------------------------------------|
g------------------------------------------------------|
d------------------------------------------------------|
a------------------------------------------------------|
e------------------------------------------------------| 

e-12-14-15p14p12-15p14p12-15p14p12-15p14p12-15p14-12-|
b----------------------------------------------------|
g----------------------------------------------------|
d----------------------------------------------------|
a----------------------------------------------------|
e----------------------------------------------------|

e-10-9^-8-7-5-3-|
b---------------|
g---------------|
d---------------|
a---------------|
e---------------|


 Then,

  Em      D#m
e-7-7-7-7-7---|
b-6-6-6-6-7---|
g-9-9-9-9-8---|
d-9-9-9-9-8---|(x8)
a-7-7-7-7-6---|
e-------------|

 Chorus



------------------
song #11: fly away
------------------
tabbed by Michael Fryar



Intro: 

  B
e------------|
b------------|
g-5-5-5-5-5--|
d-5-5-5-5-5--|
a-2-2-2-2-2--|
e------------|



Verse:

  E             G G#            G F#
e-----------------------------------------------|
b-----------------------------------------------|
g-----------------------------------------------|
d-2-2-2-2-2-2-2-5-6-6-6-6-6-6-6-5-4-4-4-4-4-4-4-|
a-2-2-2-2-2-2-2-5-6-6-6-6-6-6-6-5-4-4-4-4-4-4-4-|
e-0-0-0-0-0-0-0-3-4-4-4-4-4-4-4-3-2-2-2-2-2-2-2-|

  B
e-----------------|
b-----------------|
g-4-4-4-4-4-4-4-4-|
d-4-4-4-4-4-4-4-4-|(x2)
a-2-2-2-2-2-2-2-2-|
e-----------------|



Bridge: (from "understanding..")

  D#   E  F#
e------0--2--|
b---4--0--2--|
g---3--1--3--|
d-1-1--2--4--|(x2)
a------2--4--|
e------0--2--|

  Bm   G    A 
e---2----3----5---5---5-5--|
b---3----3----5---5---5-5--|
g---4----4----6---6---6-6--|
d-4-4----5----7---7---7-7--|
a-2-2--5-5--7-7-7-7-7-7-7--|
e------3-3--5-5-5-5-5-5-5--|



Chorus: (thanks Paul (paulgill_13@hotmail.com) for the chorus
 
e-2-2-2-2-2-2-2-2-2-2-2-2-2-2-2-2-2-2-----|
b-3-3-3-3-3-3-3-3-3-3-3-3-3-3-3-3-3-3-3---|
g-2-2-2-2-2-2-2-2-3-3-3-3-3-3-3-3-2-2---2-|
d-0-0-0-0-0-0-0-0-0-0-0-0-0-0-0-0-0-0-----|
a-----------------------------------------|
e-----------------------------------------|

  C        B
e---------------------------|
b-5-5-5----4-4-----4--------|
g-5-5---5--4---4-----4---4--|
d-5-5------4----------------|
a-3-3------2-----2-----2----|
e---------------------------|

  G          A  A#         D               B
e---3-----3--5----6-----6---------------------------------|
b---3-----3--5----6-----6------7-------7------------------|
g---4-----4--6----7-----7--------7-------7-4-4-4-4-4-4-4-4|
d-5-5-5-5-5--7--8-8-8-8-8--7-7-----7-7-----4-4-4-4-4-4-4-4|
a-5-5-5-5-5--7--8-8-8-8-8--5-5-----5-5-----2-2-2-2-2-2-2-2|
e-3-3-3-3-3--5--6-6-6-6-6---------------------------------|


Verse

Bridge

Chorus

Solo:

e----------------------------------------------------|
b----------------------------------------------------|
g----------------------------------------------------|
d---------2---------5b-4-2---2-4---2-4-4b-5b-4-2-4-2-|
a-----2-4-------2-4--------4-----4-------------------|
e-2-4-------2-4--------------------------------------|

e---------------------------------------8---------|
b-----------------------------------5s8---11-8----|
g-------2-4-5^6-5^6-5^6p4-2-4-2^3^4------------10-|
d-------------------------------------------------|
a-4p2h4-------------------------------------------|
e-------------------------------------------------|

e-----------------------------------15~----------|
b-8-----------------------------3s9-----12-------|
g---10-8-10-8----10-8------8b9-------------14-12-|
d-------------10------10-8-----------------------|
a------------------------------------------------|
e------------------------------------------------|

e---------------------------------------------------------|
b-------14-15p14p12----15p14p12----15p14p12----15p14p12---|
g-11s14-------------13----------13----------13----------12|
d---------------------------------------------------------|
a---------------------------------------------------------|
e---------------------------------------------------------|

e-------------------------------------|
b----------17-19-17----17-19-19^21^19-|
g-14s17-19----------19----------------|
d-------------------------------------|
a-------------------------------------|
e-------------------------------------|

e----------------------------------|
b----------------------------------|
g-------15-------13-------12-10-9--|
d----------------------------------|
a-15h17----13h15----12h14----------|
e----------------------------------|


Bridge


Last Chorus Into Outro:
                                                         
  D               unknown chord   D
e-----------------9-9-9-9-9-9-9-9---------|
b-7-7-7-7-7-7-7-7-9-9-9-9-9-9-9-9-7-7-7---|
g-7-7-7-7-7-7-7-7-7-7-7-7-7-7-7-7-7-7---7-|
d-7-7-7-7-7-7-7-7-7-7-7-7-7-7-7-7-7-7-----|
a-5-5-5-5-5-5-5-5-5-5-5-5-5-5-5-5-5-5-----|
e-----------------------------------------|

  C        B
e---------------------------|
b-5-5-5----4-4-----4--------|
g-5-5---5--4---4-----4---4--|
d-5-5------4----------------|
a-3-3------2-----2-----2----|
e---------------------------|


  G          A  A#         D               B
e---3-----3--5----6-----6---------------------------------|
b---3-----3--5----6-----6------7-------5-------4-----4----|
g---4-----4--6----7-----7--------7-------5-------4-----4--|
d-5-5-5-5-5--7--8-8-8-8-8--7-7-----5-5-----4-4------------|
a-5-5-5-5-5--7--8-8-8-8-8--5-5-----3-3-----2-2-----2-----2|
e-3-3-3-3-3--5--6-6-6-6-6---------------------------------|


  G          A  A#         
e---3-----3----------------|
b---3-----3--2----3-----3--|
g---4-----4--2----3-----3--|
d-5-5-5-5-5--2--3-3-3-3-3--|
a-5-5-5-5-5--0--1-1-1-1-1--|
e-3-3-3-3-3----------------|

  D
e-----2------------|
b-------3-----2----|
g---------2--------|
d-0-0-------0---0--| keep repeating that D
a------------------| chord as needed
e------------------|


*in the background of that D chord this comes in:

e--------------------------------|
b-8-8-7-7-5-5-3-3----------------|
g-----------------3-3-3-3-3-5-3--|
d--------------------------------|(x4)
a--------------------------------|
e--------------------------------|

End On:
  D
e--------|
b-----3--|
g---2----|
d-0------|
a--------|
e--------|
 
 
 
 
----------------------
song #12: i want a day
----------------------
tabbed by Mick Fryar



Intro: 

   F#
e---------------|
b---------------|
g---------------|
d--4--4--4-4-4--|
a--4--4--4-4-4--|
e--2--2--2-2-2--|

Verse: B - D - C# - (x2)


  B                    D            C#
e-----------------------------------------------|
b-----------------------------------------------|
g-4-4-4-4---4--4-4-4---7-7-----7----6-6---6---6-|
d-4---4---4-4--4-4-4---7---7-----7--6-------6-6-|(x2)
a-2---2-----2--2-2-2---5-----5------4---4-----4-|
e-----------------------------------------------|

  D           C#
e-----------------|
b-----------------|
g-7-7-7-7-7-7-6-6-|
d-7-7-7-7-7-7-6-6-|(x3)
a-5-5-5-5-5-5-4-4-|
e-----------------|

   A
e--5----5------|
b--5----5------|
g--6----6------|
d--7----7-7-7--|
a--7----7-7-7--|
e--5----5-5-5--|
      


Chorus: *up strokes*

  B                A                
e-7-7-7-7-7-7-7-7--5-5-5-5-5-5-5-5--|
b-7-7-7-7-7-7-7-7--5-5-5-5-5-5-5-5--|
g-8-8-8-8-8-8-8-8--6-6-6-6-6-6-6-6--|
d-9-9-9-9-9-9-9-9--7-7-7-7-7-7-7-7--|
a-----------------------------------|
e-----------------------------------|

  B                A        F#
e-7-7-7-7-7-7-7-7--5-5-5-5--2---|
b-7-7-7-7-7-7-7-7--5-5-5-5--2---|
g-8-8-8-8-8-8-8-8--6-6-6-6--3---|
d-9-9-9-9-9-9-9-9--7-7-7-7--4---|
a---------------------------4---|
e---------------------------2---|

Verse

Chorus


Bridge: 
       
   B       A       G
e--------------------3---3---3---3--|
b--------------------3---3---3---3--|
g--4-4-4-4-2-2-2-2-0-0-0-0-0-0-0-0--|
d--4-4-4-4-2-2-2-2-0-0-0-0-0-0-0-0--|
a--2-2-2-2-0-0-0-0-x-2-x-2-x-2-x-2--|
e------------------3-3-3-3-3-3-3-3--|






Pre Solo:

e-0---0-----------0---0-----------0---0---------|
b-0---0---0---0---0---0---0---0---0---0---0---0-|
g-1---3---4---6---1---3---4---6---1---3---4---6-|
d-2---4---5---7---2---4---5---7---2---4---5---7-| 
a-2---4---5---7---2---4---5---7---2---4---5---7-|
e-0---------------0---------------0-------------|

e-------------------|
b---0---0---0---0---|
g---8---9--10--11---|
d---9--10--11--12---|
a---9--10--11--12---|
e-------------------|

Solo:
e-------------------------------------------------------|
b-------------7-----------------------------------------|
g---------------9-7-6----------------6h7----------------|
d-9-9-7-9-9-7---------9-7-7---7---9------7---9-9-7-9-9-7|
a---------------------------9---9-----------------------|
e-------------------------------------------------------|

e---------------------------------------|
b-7------------------7---7--------------|
g---9-7-6h7--------x---x----------------|
d-----------9-7-9-----------11^-9-------|
a---------------------------------11-11-|
e---------------------------------------|



Last Chorus:

   C#                       B                 
e---9--9--9--9--9--9--9--9-7-7-7-7-7-7-7-7-|
b---9--9--9--9--9--9--9--9-7-7-7-7-7-7-7-7-|
g--10-10-10-10-10-10-10-10-8-8-8-8-8-8-8-8-|
d--11-11-11-11-11-11-11-11-9-9-9-9-9-9-9-9-|
a------------------------------------------|
e------------------------------------------|

   C#                      B        G
e--9--9--9--9--9--9--9--9--7-7-7-7--3----|
b--9--9--9--9--9--9--9--9--7-7-7-7--3----|
g-10-10-10-10-10-10-10-10--8-8-8-8--4----|
d-11-11-11-11-11-11-11-11--9-9-9-9--5----|
a-----------------------------------5----|
e-----------------------------------3----|

   C#                                               
e-------------------------------------------------|
b-------------------------------------------------|
g-------------------------------------------------|
d-10-10-10-10-10-10-10-10-10-10-10-10-10-10-10-10-|
a-10-10-10-10-10-10-10-10-10-10-10-10-10-10-10-10-|
e--8--8--8--8--8--8--8--8--8--8--8--8--8--8--8--8-|


    B
e-----------------------------------|
b-----------------------------------|
g-----------------------------------|
d--9-9-9-9-9-9-9-9-9-9-9-9-9-9-9-9--|
a--9-9-9-9-9-9-9-9-9-9-9-9-9-9-9-9--|
e--7-7-7-7-7-7-7-7-7-7-7-7-7-7-7-7--|

   C#                                               
e-------------------------------------------------|
b-------------------------------------------------|
g-------------------------------------------------|
d-10-10-10-10-10-10-10-10-10-10-10-10-10-10-10-10-|
a-10-10-10-10-10-10-10-10-10-10-10-10-10-10-10-10-|
e--8--8--8--8--8--8--8--8--8--8--8--8--8--8--8--8-|


  B
e-----------------|
b-----------------|
g-----------------|
d-9-9-9-9-9-9-9-9-|
a-9-9-9-9-9-9-9-9-|
e-7-7-7-7-7-7-7-7-|
 

Outro:

  G               C
e--------------------|
b--------------------|
g-----------------5--|
d-5--5--5--5-5-5--5--|
a-5--5--5--5-5-5--3--|
e-3--3--3--3-3-3-----|
 
 
 
 
---------------------
song #13: sleep on it
---------------------
tabbed by Michael Fryar 



Intro: Strum strings individually over the chords,
 Am - G - F - E - Am - G - F - E


Verse: Am - G - F - E ,repeat as needed
       F# - D - F# - D - E - D - C - D

Chorus: A - F - G - A
        A - F - E
        F - G - G# - A - F - E - A

Verse
Chorus
Solo :

e-12-------:------12-10----------------:-5p3p0---3p0------------------------------------:
b----13----:-s-13-------13-12-13p12p10-:-------3-----3---5------------------------------:
g-------14-:---------------------------:---------------5---7p5---7p5-----s5-------------:
d----------:---------------------------:-----------------------7-----7p5----7-----------:
a----------:---------------------------:--------------------------------------7-5-7-5-5-:
e----------:---------------------------:------------------------------------------------:

e-----5-------7------7-11p7--------:---------sw12-15s--------/-|
b----6-6-----8-8----8-------8------:-----sw13----------------/-|
g-s-5-----s-7----s-8----------8-s9-:-sw14--------------------/-|
d----------------------------------:-------------------2-3-2-/-|
a----------------------------------:-------------------2-3-2-/-|
e----------------------------------:-------------------0-1-0-/-|

Bridge: F dim_7th

Chorus: *key change*
A# - F# - G# - A#
A# - F# - F
F# - G# - A - A#

Outro:
F#- F - F#-F - F#-F - A#



--------------------
song #14: closing in
--------------------
tabbed by Michael Fryar 



e-------:---------:----------:----------:|
b-------:---------:----------:----------:|
g---7p6-:----10p9-:----13p12-:----16p15-:|
d-9-----:-12------:-15-------:-18-------:|
a-------:---------:----------:----------:|
e-------:---------:----------:----------:|


e-----------------:|
b-----------------:|
g-------------12~-:|
d-12-14-15-12-----:|
a-----------------:|
e-----------------:|


e---------------------------------8-7----:|
b------------------------------10-----9~-:|
g------------------10p9-9-10-------------:|
d----------10s9-12-----------------------:|
a-------12-------------------------------:|
e-10-13----------------------------------:|

e---------------------------------8-7--:|
b------------------------------10------:|
g------------------10p9---9-10---------:|
d----------10s9-12---------------------:|
a-------12-----------------------------:|
e-10-13--------------------------------:

e-------------------------------------:|
b-------------------------------------:|
g----------------------------10-12-14-:|
d-------------------10-12-14----------:|
a----------10-12-13-------------------:|
e-10-12-13----------------------------:|

    
e----------12-13-15-17-|
b-11-13-15-------------|
g----------------------|
d----------------------|
a----------------------|
e----------------------|


e*-----------------------------------|
b*-----------------------------------|
g*-----7-7--------7-7-9-9-9h10p9-9-7-|
d*--------8-8-7-7--------------------|
a*-5-5-------------------------------|
e*-----------------------------------|

e------------------------10-:---------------------s:|
b-------------------7h10----:---------------------s:|
g-----7-7-------7h8---------:--------7------------s:|
d---------8-8-7-------------:----7-8---10-7-7h8p7-s:|
a-5-5-----------------------:-10------------------s:|
e---------------------------:---------------------s:|

e----------------------------5-:
b-----------------9----------5-:
g------7----10-8-10-8-10---7-6-:
d------7----8--8----7-8----7-5-:
a-10-9-5-----------------0---7-:
e----------------------------5-:* Play from * to * again.

    
e--------------------------------------------------:|
b--------------------------------------------------:|
g-7-7-7-7-7-7-7-7-9-9-9-9-9-9-9-9-1010101010101010-:|
d-7-7-7-7-7-7-7-7-9-9-9-9-9-9-9-9-1010101010101010-:|
a-5-5-5-5-5-5-5-5-7-7-7-7-7-7-7-7-8-8-8-8-8-8-8-8--:|
e--------------------------------------------------:|


e-------------------------------:|
b-------------------------------:|
g--77777-88888-99999-1010101010-:|
d--77777-88888-99999-1010101010-:|
a--55555-66666-77777--8-8-8-8-8-:|
e-------------------------------:|
 
e--------------------------------------:|
b----------5-6-8-5--5------------------:|
g-3-5-3-2--5----------7-5s4-5-4--------:|
d-3--------5--------------------7h5-7^-:|
a--------------------------------------:|
e--------------------------------------:|


e----------------------------------------:|
b----------5-6-8-6-5---------------------:|
g-3-5-3-2--5----------5-4-5-7--8-7-8--10-:|
d-3--------5----------7-6-7-9-10-9-10-12-:|
a----------------------------------------:|
e----------------------------------------:|
 
e------------------------------------------:|
b----------------------------------8h10h11-:|
g-7-------------------9p7p5-7h9h10---------:|
d---10-8-7---------------------------------:|
a----------10-8-7--------------------------:|
e-----------------10-----------------------:|


e---------------------------:-------------------------------:|
b------------------11h13h14-:-------------------14h16h17-15-:|
g-12p10p8-10h12h13----------:-15p13p11-13h15h16-------------:|
d---------------------------:-------------------------------:|
a---------------------------:-------------------------------:|
e---------------------------:-------------------------------:|


  (repeat this section 3 times ok)
e----------------------:--------------------:|
b----------------------:--------------------:|
g----------------------:--------------------:|
d----------12----------:---------11---------:|
a-10-13-12----10-13-12-:-9-12-11----9-12-11-:|
e----------------------:--------------------:|

e----------------------:----------------------:|
b----------------------:----------------------:|
g----------------------:----------14-12-------:|
d----------14----------:-------15-------14----:|
a-12-15-14----12-15-14-:-13-16-------------13-:|
e----------------------:----------------------:|

 
e----------------------:--------------------:|
b----------------------:--------------------:|
g----------------------:--------------------:|
d----------12----------:---------11---------:|
a-10-13-12----10-13-12-:-9-12-11----9-12-11-:|
e----------------------:--------------------:|


e---------------------:--------------------------------:|
b---------------------:--------------------------------:|
g---------------------:----------14-12--------------14-:|
d---------14----------:-------15-------14----12-15-----:|
a-12-15-14---12-15-14-:-13-16-------------13-----------:|
e---------------------:--------------------------------:|

 
e-8p5--------11p8---------:-14p11-----------17p14----------:|
b-----7-----------10------:-------13--------------16-------:|
g-------8-5----------11-8-:----------14-11-----------17-14-:|
d-------------------------:--------------------------------:|
a-------------------------:--------------------------------:|
e-------------------------:--------------------------------:|
  
 This is where it goes into that fast Top Gun type solo :)
e-------------------------------|
b-12--13------------------------|
g-12~----12b14-12p10----10------|
d--------------------12----12-12|
a-------------------------------|
e-------------------------------|


e-------------------------------:|
b-------------------------------:|
g-------------------------------:|
d-10-10h12p10----10-------------:|
a-------------12----s-10-8----8-:|
e--------------------------10---:|
 
e-------------------------------------------------|
b-------------------------------------------------|
g----------------------------10h12p10----10-12-10-|
d-----10-12p10----10--s12-12----------12----------|
a-s12----------12---------------------------------|
e-------------------------------------------------|


e----------------------------------------:|
b----------------------------------------:|
g-s13-13-s-12h13p12----12----------------:|
d------------------15----15-12---12-12~~-:|
a-----------------------------15---------:|
e----------------------------------------:|
 
e--------------------------------------------------------:|
b-10-----------------------------------------------------:|
g-10-----------------------------------------------------:|
d----12-------10-12-12^13-12-12p10----10-----------------:|
a-------12-12----------------------12----12-10s8-------8-:|
e------------------------------------------------10-10---:|


e-s17-13----------------:|
b--------15-------------:|
g-----------14-13-~~13--:|
d-----------------------:|
a-----------------------:|
e-----------------------:|
 
e--------------------------------------------------------|
b--------------------------------------------------------|
g-15p14p12----------14p12p10----------12p10p9-10p9-------|
d----------15p14p12----------14p12p10--------------10-12~|
a--------------------------------------------------------|
e--------------------------------------------------------|
 
e----------------------------------------------:|
b----------------------------------------------:|
g-10---12p10----10-10-10^-13p10----10-10-10~---:|
d------------12-----------------12-------------:|
a----------------------------------------------:|
e----------------------------------------------:|


e----------------------------------------------|
b----------------------------------------------|
g-14p10----10-10-10~-----10-12p-10----10-12s14-|
d-------12------------12-----------12----------|
a----------------------------------------------|
e----------------------------------------------|


e----------------:|
b-13-------------:|
g----14s12-10----:|
d-------------12-:|
a----------------:|
e----------------:|

e----13-----15^-15^-15^17-15p13------:|
b-15----15----------------------15-15:|
g------------------------------------:|
d------------------------------------:|
a------------------------------------:|
e------------------------------------:|


e-----15-----15-----15-:-----15-------------------:|
b-15b----15b----15b----:-15^----15^17-15p13-15-13-:|
g----------------------:--------------------------:|
d----------------------:--------------------------:|
a----------------------:--------------------------:|
e----------------------:--------------------------:|
 
e-13-13-15^-15^17-15p13----13-------13-15p13s12-13p12s10s:|
b-----------------------15----15-15----------------------:|
g--------------------------------------------------------:|
d--------------------------------------------------------:|
a--------------------------------------------------------:|
e--------------------------------------------------------:|

e-12p10----10-----------------------:|
b-------13----13-11-13p11s10----10s-:|
g----------------------------12-----:|
d-----------------------------------:|
a-----------------------------------:|
e-----------------------------------:| 


  (play this section twice)(from * to *)
*
e--------------------11-10-:---------------------:-|
b---------------7h10-------:---------------------:-|
g-7-7-------7h8------------:--------7------------:-|
d-----8-8-7----------------:----7-8---10-7-7h8p7-:-|
a--------------------------:-10------------------:-|
e--------------------------:---------------------:-|


e--------------------11-10-:---------------------:|
b---------------7h10-------:---------------------:|
g-7-7-------7h8------------:--------7------------:|
d-----8-8-7----------------:----7-8---10-7-7h8p7-:|
a--------------------------:-10------------------:|
e--------------------------:---------------------:|
                                
e---------------------------5-:-|*
b----------------9----------5-:-|
g---------10--8-10-8-10---7-6-:-|
d------7--8---8----7--8---7-5-:-|
a-10-9-5----------------0---7-:-|
e---------------------------5-:-|

 
e-5--------------------------------:|
b-5------------6-------------------:|
g-6------------6-------------------:|
d-5-(strum)----7-(strum as needed)-:|
a-7------------8-------------------:|
e-5--------------------------------:|

e-5-------------------------------------------:|
b-6-12~--13-----------------------------------:|
g-7-------12~-10-12-10------------------------:|
d-7--------------------12-10h12p10------------:|
a-5--------------------------------12-12s10-8-:|
e---------------------------------------------:|
 

e---------------------------------------------13-15-15^-15^-15^|
b------------------------------------10-13-15------------------|
g---------------------------10-12-13---------------------------|
d---------10h12p10----10-12------------------------------------|
a-8-10s12----------12------------------------------------------|
e--------------------------------------------------------------|

            Dm
          e-5--:|
          b-6--:|
Finish on g-7--:|
          d-7--:|
          a-5--:|
          e----:|
comments
print report bad tab
8 comments total. Showing first comments.
0 reply
Baza14 wrote on April 28 2005, 12:00 am

this tab is made up of mostly 5 star tabs by other tabbers, its realy good to have a whole album of awsome tabs... coool

0 reply
shanneus81 wrote on August 8 2005, 12:00 am

hello

0 reply
repsac_hoppus wrote on December 5 2005, 12:53 am

baza + shanneus are the gayest people i know

I want to post or [tab]
guest
You may want to rate the tab now too:
select rating
Please do not post tabs as comments. Select "correction" instead!