Oops, an error
Loading. Please wait.

White Noise Tab

ver1
ver1

Album

Whole song

Interactive

More versions @911Tabs.com
7,689 views 15 this week
4 commentsread comments
1 2 3 4 5
excellent!
x 2
Autoscroll
+/-
esc
set tempo
stop
Contributor
Hey! There's an official Ultimate Guitar app which is ideal
for learning songs when you're away from computer. Get the app
WARNING: You are trying to view
                                    content from Ultimate-Guitar.com
                                    in an unauthorized application,
                                    which is prohibited.

                                    Please use an official Ultimate
                                    Guitar Tabs application for iPhone,
                                    iPad or Android to access legitimate
                                    chords, guitar, bass, and drum tabs
                                    from Ultimate-Guitar.com database.

                                    Type "ultimate guitar tabs" in Apple
                                    App Store's or Android Market's
                                    search to find the application.
Hey guys.

id like to say that these tabs are not my own work, but i thought it would
be handy to all the living end fans out there to have their new album
compiled together.

ive taken these tabs from both UG and a guy named Arin at http://tletabs.webs.com/index.htm

***UPDATE***4/3/09: Raise the Alarm now has a full solo. Ive started work on 21st century, 
but only coz i hit a wall with Sum of Us. 
Any tabbers who have got them, please PM! :D x

track listing:
1. How Do We Know
2. Raise the Alarm
3. White Noise
4. Moment in the Sun
5. Waiting for the Silence
6. Make The Call
7. Loaded Gun
8. Kid
9. 21st Century
10. Hey Hey Disbeliever
11. Sum of Us

here we go.

01 -- HOW DO WE KNOW
http://www.ultimate-guitar.com/tabs/t/the_living_end/how_do_we_know_tab.htm

Intro
e--------------------------------|
b-----3-3-3-3---3-3-3-3----------|
g----------------------(4)^2-0---|
d--------------------------------|
a--------------------------------|
E---0---------0------------------|

e---------------------------0-----|
b----3-3-3-3---3-3-3-3------------|
g----------------------2^(4)------|
d---------------------------------|
a---------------------------------|
E--0---------0--------------------|

e-------------------------------|
b-----3-3-3-3---3-3-3-3---------|
g----------------------(4)^2-0--|
d-------------------------------|
a-------------------------------|
E---0---------0-----------------|

e-----------0-------------------|
b---------0---3-----------------|
g---2^(4)------(4)^2-0--2--0----|
d----------------------2--2-----|
a-------------------------------|
E-------------------------------|
Repeat first 2 bars but second time play the bar below this

e-3P0--0------------------------------|
b-----3--3P0-3^(5)--3P0---0-----------|
g-----------------------2---2P0-------|
d-------------------------------2-----|
a-------------------------------------|
E-------------------------------------|

Verse x 3
e--------------------------------3------|
b--------------------------------0------|
g--------------------------------0------|
d-(2)---2-0-2-5-5-5-5-2-0---0----0------|    x 3
a-(2)---------------------2---2--x------|
E--0-----------------------------3------|

e-----------------------------------|
b-----------------------------------|
g-------------------7-7-7-7-7-7-----|
d-----2-0-2-5-2-----7-7-7-7-7-7-----|
a-------------------5-5-5-5-5-5-----|
E--0--------------------------------|

Pre-Chorus
e-----------------------------|
b-----------------------------|
g--2--------------------------|
d--2--------------------------|
a--0--------------------------|
E-----------------------------|
Strummed more than once but you should be able to work out the pattern

e--------------------------------3------|
b--------------------------------0------|
g--------------------------------0------|
d-(2)---2-0-2-5-5-5-5-2-0---0----0------|    x 2
a-(2)---------------------2---2--x------|
E--0-----------------------------3------|

e-------------------------3-------------------|
b-------------------------0-------------------|
g--2----------------------0-------------------|
d--2----------------------0-------------------|
a--0----------------------2-------------------|
E-------------------------3-------------------|

e----------------------------|
b----4-4-4-4----4-4-4-4---4--|
g----------------------------|
d----------------------------|
a----------------------------|
E--0---------0----------0----|

Chorus
e--------------------------------------------------------------|
b--------------------------------------------------------------|
g-----9-9-9-9----9-9-9-9---9---11-11-11-11--11-11-11-11---11---|
d--------------------------------------------------------------|
a-----7-7-7-7----7-7-7-7---7---9--9--9--9---9--9--9--9----9----|
E--0-----------0---------0----0-----------0-------------0------|

e-----------------------------------|
b-----------------------------------|
g----12-12-12-12---12-12-12-12--12--|
d-----------------------------------|
a----10-10-10-10---10-10-10-10--10--|
E--0-------------0-------------0----|

e-------------------------------------|
b-------------------------------------|
g---14-14-14-14---14-14-14-14---14----|
d-------------------------------------|
a---12-12-12-12---12-12-12-12---12----|
E-0-------------0-------------0-------|

Post Chorus
e-----------------------|
b-----------------------|
g---9-9-----9-9---------|
d---9-9-----9-9---------|
a---7-7-----7-7---------|
E-----------------------|

Verse x 2

Pre-Chorus

Chorus

Bridge
e------------------------------------------------|
b------------------------------------------------|
g--5-----------------------0---------------------|
d--5-----------------------2---------------------|
a--3-----------------------2---------------------|
E--------------------------0---------------------|
Played twice, Second time just let the E chord ring

Interlude
e--------------------------------|
b-----3-3-3-3---3-3-3-3----------|
g-----------------------(4)^2-0--|
d--------------------------------|
a--------------------------------|
E---0---------0------------------|

e---------------------------0----|
b----3-3-3-3---3-3-3-3-----------|
g----------------------2^(4)-----|
d--------------------------------|
a--------------------------------|
E--0---------0-------------------|

e--3^(5)-3^(5)-3-0---0--------------------|
b------------------3----3-0---0-----------|
g---------------------------2----2-0--0---|
d------------------------------------2----|
a-----------------------------------------|
E-----------------------------------------|

e-------------------------------|
b----3-3-3-3---3-3-3-3----------|
g----------------------(4)^2-0--|
d-------------------------------|
a-------------------------------|
E--0---------0------------------|

e---------------------------0-----|
b----3-3-3-3---3-3-3-3------------|
g----------------------2^(4)------|
d---------------------------------|
a---------------------------------|
E--0---------0--------------------|

e-----------------------------------------------|
b-----3-3-3-3---3-3-3-3----------3---^---(5)----|
g-----------------------(4)^2-0--2---^---(4)----|
d-----------------------------------------------|
a-----------------------------------------------|
E---0---------0---------------------------------|
		                |--repick---|

Solo
e---------------------------------------------|
b-------------13-13-13-13---------------------|
g---14-12-14--------------14-12---12---14~----|
d-----------------------------------14--------|
a---------------------------------------------|
E---------------------------------------------|

e--------------------------------------------|
b--13P12--12-13-15^(17)-(17)-(17)^15P13------|
g-------14------------------------------14---|
d--------------------------------------------|
a--------------------------------------------|
E--------------------------------------------|

e-----------------------------------------------------------------------|
b------12/13\12-----12/13\12----12-12-12-12---13-13-13-13----15—17~~~---|
g---12-----------12-----------------------------------------------------|
d-------9/10\9-------9/10\9----9------------9--------------9------------|
a---9------------9------------------------------------------------------|
E-----------------------------------------------------------------------|

e---------------------------------------------|
b----12-12-12-12---13-13-13-13----15—17~~~----|
g---------------------------------------------|
d--9-------------9--------------9-------------|
a---------------------------------------------|
E---------------------------------------------|

Chorus

Outro
e--------------------------------------------------------|
b--------------------------------------------------------|
g--5-----------------------0-----------------------------|
d--5-----------------------2-----------------------------|
a--3-----------------------2-----------------------------|
E--------------------------0-----------------------------|

e-------------------------------------|
b-------------------------------------|
g--5----------------7-------4---------|
d--5----------------7-------4---------|
a--3----------------5-------2---------|
E-------------------------------------|

e-------------------------------------|
b------3-3-3-3---3-3-3-3--------------|
g----------------------------(4)^2-0--|
d---2---------------------------------|
a---2---------------------------------|
E---0-----------0---------------------|

e------------------------------------0-----|
b-----3-3-3-3---3-3-3-3--------------------|
g---------------------------2^(4)----------|
d------------------------------------------|
a------------------------------------------|
E--0----------0----------------------------|

e------------------------------------------|
b------3-3-3-3---3-3-3-3-------------------|
g----------------------------(4)^2-0-------|
d---2---------------------------------2----|
a-------------------------------------2----|
E---0-----------0---------------------0----|

End.
credit A-RAD

02 -- RAISE THE ALARM
http://www.ultimate-guitar.com/tabs/t/the_living_end/raise_the_alarm_ver2_tab.htm

|--5-5-5-5--3-3-3-3--5-5-5-5--3-3-3-3--5-5-5-5--3-3-3-3--5-5-5-5-5--0-0-0------|
b|--6-6-6-6--5-5-5-5--6-6-6-6--5-5-5-5--6-6-6-6--5-5-5-5--6-6-6-6-6--5-5-5-----|
g|--7-7-7-7--6-6-6-6--7-7-7-7--6-6-6-6--7-7-7-7--6-6-6-6--7-7-7-7-7--5-5-5-----|
d|--0-0-0-0--0-0-0-0--0-0-0-0--0-0-0-0--0-0-0-0--0-0-0-0--0-0-0-0-0--0-0-0-----|
a|-----------------------------------------------------------------------------|
D|-----------------------------------------------------------------------------|
pm***************************************************************************

e|--5-5-5-5--3-3-3-3--5-5-5-5--3-3-3-3--5-5-5-5--3-3-3-3--5-5-5-5-5-5-5------|
b|--6-6-6-6--5-5-5-5--6-6-6-6--5-5-5-5--6-6-6-6--5-5-5-5--6-6-6-6-6-6-6------|
g|--7-7-7-7--6-6-6-6--7-7-7-7--6-6-6-6--7-7-7-7--6-6-6-6--7-7-7-7-7-7-7------|
d|--0-0-0-0--0-0-0-0--0-0-0-0--0-0-0-0--0-0-0-0--0-0-0-0--0-0-0-0-0-0-0------|
a|---------------------------------------------------------------------------|
D|---------------------------------------------------------------------------|
pm****************************************************************************

e|--5-5-5-5--3-3-3-3--5-5-5-5--3-3-3-3--5-5-5-5--3-3-3-3--5-5-5-5-5-5-5---------|
b|--6-6-6-6--5-5-5-5--6-6-6-6--5-5-5-5--6-6-6-6--5-5-5-5--6-6-6-6-6-6-6---------|
g|--7-7-7-7--6-6-6-6--7-7-7-7--6-6-6-6--7-7-7-7--6-6-6-6--7-7-7-7-7-7-7---------|
d|--0-0-0-0--0-0-0-0--0-0-0-0--0-0-0-0--0-0-0-0--0-0-0-0--0-0-0-0-0-0-0---------|
a|--0-0-0-0--0-0-0-0--0-0-0-0--0-0-0-0--0-0-0-0--0-0-0-0--0-0-0-0-0-0-0---------|
D|------------------------------------------------------------------------------|

e|--5-5-5-5--3-3-3-3--5-5-5-5--3-3-3-3--5-5-5-5--3-3-3-3--5-5-5-5-5---------------|
b|--6-6-6-6--5-5-5-5--6-6-6-6--5-5-5-5--6-6-6-6--5-5-5-5--6-6-6-6-6---------------|
g|--7-7-7-7--6-6-6-6--7-7-7-7--6-6-6-6--7-7-7-7--6-6-6-6--7-7-7-7-7---------------|
d|--0-0-0-0--0-0-0-0--0-0-0-0--0-0-0-0--0-0-0-0--0-0-0-0--0-0-0-0-0---12/---------|
a|--0-0-0-0--0-0-0-0--0-0-0-0--0-0-0-0--0-0-0-0--0-0-0-0--0-0-0-0-0---12/---------|
D|--------------------------------------------------------------------12/---------|

pre verse
e|-0-0---0-0-0---0-0-0---0-0-0---0-0-0---0-0-0---0-0-0---0-0---------|
b|-1-1---1-1-1---1-1-1---1-1-1---1-1-1---1-1-1---1-1-1---1-1---------|
g|-2-2---2-2-2---2-2-2---2-2-2---2-2-2---2-2-2---2-2-2---2-2--2-0--0-|
d|-2-2---2-2-2---2-2-2---2-2-2---2-2-2---2-2-2---2-2-2---2-2------2--|
a|-0-0---0-0-0---0-0-0---0-0-0---0-0-0---0-0-0---0-0-0---0-0---------|
D|-------------------------------------------------------------------|
pm     *       *       *       *       *       *       *

Verse

e|-0-0---0-0-0---0-0-0---0-0-0---0-0-0---0-0-0---0-0-0---0-0-|
b|-1-1---1-1-1---1-1-1---1-1-1---1-1-1---1-1-1---1-1-1---1-1-|
g|-2-2---2-2-2---2-2-2---2-2-2---2-2-2---2-2-2---2-2-2---2-2-|
d|-2-2---2-2-2---2-2-2---2-2-2---2-2-2---2-2-2---2-2-2---2-2-|
a|-0-0---0-0-0---0-0-0---0-0-0---0-0-0---0-0-0---0-0-0---0-0-|
D|-----------------------------------------------------------|
pm     *       *       *       *       *       *       *

e|-----------------------------------------------------------|
b|-----------------------------------------------------------|
g|-5-5---5-5-5---5-5-5---5-5-5---5-5-5---5-5-5---5-5-5---5-5-|
d|-3-3---3-3-3---3-3-3---3-3-3---3-3-3---3-3-3---3-3-3---3-3-|
a|-3-3---3-3-3---3-3-3---3-3-3---3-3-3---3-3-3---3-3-3---3-3-|
D|-3-3---3-3-3---3-3-3---3-3-3---3-3-3---3-3-3---3-3-3---3-3-|
pm     *       *       *       *       *       *       *


e|0-0-0---0-0-0---0-0----------0-0---0-0-0---0-0-0---0-0-0---0-0-0---0-0-0---0-0-0---0-0--|
b|1-1-1---1-1-1---1-1----------1-1---1-1-1---1-1-1---1-1-1---1-1-1---1-1-1---1-1-1---1-1--|
g|2-2-2---2-2-2---2-2--2-0--0--2-2---2-2-2---2-2-2---2-2-2---2-2-2---2-2-2---2-2-2---2-2--|
d|2-2-2---2-2-2---2-2------2---2-2---2-2-2---2-2-2---2-2-2---2-2-2---2-2-2---2-2-2---2-2--|
a|0-0-0---0-0-0---0-0----------0-0---0-0-0---0-0-0---0-0-0---0-0-0---0-0-0---0-0-0---0-0--|
D|----------------------------------------------------------------------------------------|
pm     *       *                   *       *       *       *      *       *       *

e|-----------------------------------------------------------|
b|-----------------------------------------------------------|
g|-5-5---5-5-5---5-5-5---5-5-5---5-5-5---5-5-5---5-5-5---5-5-|
d|-3-3---3-3-3---3-3-3---3-3-3---3-3-3---3-3-3---3-3-3---3-3-|
a|-3-3---3-3-3---3-3-3---3-3-3---3-3-3---3-3-3---3-3-3---3-3-|
D|-3-3---3-3-3---3-3-3---3-3-3---3-3-3---3-3-3---3-3-3---3-3-|
pm     *       *       *       *       *       *       *

e|-0-0---0-0-0---0-0-0-|
b|-1-1---1-1-1---1-1-1-|
g|-2-2---2-2-2---2-2-2-|
d|-2-2---2-2-2---2-2-2-|
a|-0-0---0-0-0---0-0-0-|
D|---------------------|
pm     *       *

(i'd rather risk my fate...)
	 >		    >
e|---------------------------------------|
b|---------------------------------------|
g|--5----5-5-5-5-5-5---3----3-3-3-3-3----|
d|--5----5-5-5-5-5-5---3----3-3-3-3-3----|
a|--3----3-3-3-3-3-3---1----1-1-1-1-1----|
D|---------------------------------------|

Chorus
e|--5-5-5-5--3-3-3-3--5-5-5-5--3-3-3-3--5-5-5-5--3-3-3-3--5-5-5-5^---------------|
b|--6-6-6-6--5-5-5-5--6-6-6-6--5-5-5-5--6-6-6-6--5-5-5-5--6-6-6-6^---------------|
g|--7-7-7-7--6-6-6-6--7-7-7-7--6-6-6-6--7-7-7-7--6-6-6-6--7-7-7-7^---------------|
d|--0-0-0-0--0-0-0-0--0-0-0-0--0-0-0-0--0-0-0-0--0-0-0-0--0-0-0-0----------------|
a|-------------------------------------------------------------------------------|
D|-------------------------------------------------------------------------------|
pm*******************************************************************************

e|--5-5-5-5--3-3-3-3--5-5-5-5--3-3-3-3--5-5-5-5--3-3-3-3--5-5-5-5-5--|
b|--6-6-6-6--5-5-5-5--6-6-6-6--5-5-5-5--6-6-6-6--5-5-5-5--6-6-6-6-6--|
g|--7-7-7-7--6-6-6-6--7-7-7-7--6-6-6-6--7-7-7-7--6-6-6-6--7-7-7-7-7--|
d|--0-0-0-0--0-0-0-0--0-0-0-0--0-0-0-0--0-0-0-0--0-0-0-0--0-0-0-0-0--| x 2
a|--0-0-0-0--0-0-0-0--0-0-0-0--0-0-0-0--0-0-0-0--0-0-0-0--0-0-0-0-0--|
D|-------------------------------------------------------------------|

e|--5-5-5-5--3-3-3-3--5-5-5-5--3-3-3-3--5-5-5-5--3-3-3-3--5-5-5-5-5---------------|
b|--6-6-6-6--5-5-5-5--6-6-6-6--5-5-5-5--6-6-6-6--5-5-5-5--6-6-6-6-6---------------|
g|--7-7-7-7--6-6-6-6--7-7-7-7--6-6-6-6--7-7-7-7--6-6-6-6--7-7-7-7-7---------------|
d|--0-0-0-0--0-0-0-0--0-0-0-0--0-0-0-0--0-0-0-0--0-0-0-0--0-0-0-0-0---12/---------|
a|--0-0-0-0--0-0-0-0--0-0-0-0--0-0-0-0--0-0-0-0--0-0-0-0--0-0-0-0-0---12/---------|
D|--------------------------------------------------------------------12/---------|

pre verse
e|-0-0---0-0-0---0-0-0---0-0-0---0-0-0---0-0-0---0-0-0---0-0---------|
b|-1-1---1-1-1---1-1-1---1-1-1---1-1-1---1-1-1---1-1-1---1-1---------|
g|-2-2---2-2-2---2-2-2---2-2-2---2-2-2---2-2-2---2-2-2---2-2--2-0--0-|
d|-2-2---2-2-2---2-2-2---2-2-2---2-2-2---2-2-2---2-2-2---2-2------2--|
a|-0-0---0-0-0---0-0-0---0-0-0---0-0-0---0-0-0---0-0-0---0-0---------|
D|-------------------------------------------------------------------|
pm     *       *       *       *       *       *       *

Verse

e|-0-0---0-0-0---0-0-0---0-0-0---0-0-0---0-0-0---0-0-0---0-0-|
b|-1-1---1-1-1---1-1-1---1-1-1---1-1-1---1-1-1---1-1-1---1-1-|
g|-2-2---2-2-2---2-2-2---2-2-2---2-2-2---2-2-2---2-2-2---2-2-|
d|-2-2---2-2-2---2-2-2---2-2-2---2-2-2---2-2-2---2-2-2---2-2-|
a|-0-0---0-0-0---0-0-0---0-0-0---0-0-0---0-0-0---0-0-0---0-0-|
D|-----------------------------------------------------------|
pm     *       *       *       *       *       *       *

e|-----------------------------------------------------------|
b|-----------------------------------------------------------|
g|-5-5---5-5-5---5-5-5---5-5-5---5-5-5---5-5-5---5-5-5---5-5-|
d|-3-3---3-3-3---3-3-3---3-3-3---3-3-3---3-3-3---3-3-3---3-3-|
a|-3-3---3-3-3---3-3-3---3-3-3---3-3-3---3-3-3---3-3-3---3-3-|
D|-3-3---3-3-3---3-3-3---3-3-3---3-3-3---3-3-3---3-3-3---3-3-|
pm     *       *       *       *       *       *       *


e|0-0-0---0-0-0---0-0----------0-0---0-0-0---0-0-0---0-0-0---0-0-0---0-0-0---0-0-0---0-0--|
b|1-1-1---1-1-1---1-1----------1-1---1-1-1---1-1-1---1-1-1---1-1-1---1-1-1---1-1-1---1-1--|
g|2-2-2---2-2-2---2-2--2-0--0--2-2---2-2-2---2-2-2---2-2-2---2-2-2---2-2-2---2-2-2---2-2--|
d|2-2-2---2-2-2---2-2------2---2-2---2-2-2---2-2-2---2-2-2---2-2-2---2-2-2---2-2-2---2-2--|
a|0-0-0---0-0-0---0-0----------0-0---0-0-0---0-0-0---0-0-0---0-0-0---0-0-0---0-0-0---0-0--|
D|----------------------------------------------------------------------------------------|
pm     *       *                   *       *       *       *      *       *       *

e|-----------------------------------------------------------|
b|-----------------------------------------------------------|
g|-5-5---5-5-5---5-5-5---5-5-5---5-5-5---5-5-5---5-5-5---5-5-|
d|-3-3---3-3-3---3-3-3---3-3-3---3-3-3---3-3-3---3-3-3---3-3-|
a|-3-3---3-3-3---3-3-3---3-3-3---3-3-3---3-3-3---3-3-3---3-3-|
D|-3-3---3-3-3---3-3-3---3-3-3---3-3-3---3-3-3---3-3-3---3-3-|
pm     *       *       *       *       *       *       *

e|-0-0---0-0-0---0-0-0-|
b|-1-1---1-1-1---1-1-1-|
g|-2-2---2-2-2---2-2-2-|
d|-2-2---2-2-2---2-2-2-|
a|-0-0---0-0-0---0-0-0-|
D|---------------------|
pm     *       *

(i'd rather risk my fate...)
	 >		    >
e|---------------------------------------|
b|---------------------------------------|
g|--5----5-5-5-5-5-5---3----3-3-3-3-3----|
d|--5----5-5-5-5-5-5---3----3-3-3-3-3----|
a|--3----3-3-3-3-3-3---1----1-1-1-1-1----|
D|---------------------------------------|

Chorus
e|--5-5-5-5--3-3-3-3--5-5-5-5--3-3-3-3--5-5-5-5--3-3-3-3--5-5-5-5^---------------|
b|--6-6-6-6--5-5-5-5--6-6-6-6--5-5-5-5--6-6-6-6--5-5-5-5--6-6-6-6^---------------|
g|--7-7-7-7--6-6-6-6--7-7-7-7--6-6-6-6--7-7-7-7--6-6-6-6--7-7-7-7^---------------|
d|--0-0-0-0--0-0-0-0--0-0-0-0--0-0-0-0--0-0-0-0--0-0-0-0--0-0-0-0----------------|
a|-------------------------------------------------------------------------------|
D|-------------------------------------------------------------------------------|

e|--5-5-5-5--3-3-3-3--5-5-5-5--3-3-3-3--5-5-5-5--3-3-3-3--5-5-5-5-5--|
b|--6-6-6-6--5-5-5-5--6-6-6-6--5-5-5-5--6-6-6-6--5-5-5-5--6-6-6-6-6--|
g|--7-7-7-7--6-6-6-6--7-7-7-7--6-6-6-6--7-7-7-7--6-6-6-6--7-7-7-7-7--|
d|--0-0-0-0--0-0-0-0--0-0-0-0--0-0-0-0--0-0-0-0--0-0-0-0--0-0-0-0-0--| x 3 on third pause
a|--0-0-0-0--0-0-0-0--0-0-0-0--0-0-0-0--0-0-0-0--0-0-0-0--0-0-0-0-0--|
D|-------------------------------------------------------------------|

SOLO
e|---------------------------------------------------------|
b|-10-8-6--10-8-6--10-8-6--10-8-6------8--8--8--8--8-------|
g|-10-9-7--10-9-7--10-9-7--10-9-7----7b9-(9)(9)(9)(9)-r7p5~|
d|---------------------------------------------------------|
a|---------------------------------------------------------|
D|---------------------------------------------------------|

e|--------------------------------------10-----------------|
b|-10-8-6--10-8-6--10-8-6--10-8-6----------10--------------|
g|-10-9-7--10-9-7--10-9-7--10-9-7-----7-------10--7~-------|
d|---------------------------------------------------------|
a|---------------------------------------------------------|
D|---------------------------------------------------------|

E------------------------------------13b-10s---------10---------------------|
B-10-8s6-10-8s6-10-8s6-10-8s6--13b15----------13b15----13p10-------13p10----------|
G-10-9s7-10-9s7-10-9s7-10-9s7--------------------------------12p10-------12p10----|
D------------------------------------------------------------------------------12-|
A---------------------------------------------------------------------------------|
D---------------------------------------------------------------------------------|
                                     Bend the 13 1/4 of a note

E-------------------------------------------------|
B---------------------------5*-6*-8*--8b9r8-6-8~--|
G-5-7-7b-5-0-5-0-7-0-7b--7*-----------------------|
D-5~7-7b-5-0-5-0-7-0-7b---------------------------|
A-------------------------------------------------|
D-------------------------------------------------|


(i'd rather risk my fate...)
	 >		    >
e|---------------------------------------|
b|---------------------------------------|
g|--5----5-5-5-5-5-5---3----3-3-3-3-3----|
d|--5----5-5-5-5-5-5---3----3-3-3-3-3----| x2
a|--3----3-3-3-3-3-3---1----1-1-1-1-1----|
D|---------------------------------------|


e|--5-5-5-5--3-3-3-3--5-5-5-5--3-3-3-3--5-5-5-5--3-3-3-3--5-5-5-5---------------|
b|--6-6-6-6--5-5-5-5--6-6-6-6--5-5-5-5--6-6-6-6--5-5-5-5--6-6-6-6---------------|
g|--7-7-7-7--6-6-6-6--7-7-7-7--6-6-6-6--7-7-7-7--6-6-6-6--7-7-7-7---\14---------|
d|--0-0-0-0--0-0-0-0--0-0-0-0--0-0-0-0--0-0-0-0--0-0-0-0--0-0-0-0---------------|
a|------------------------------------------------------------------------------|
D|------------------------------------------------------------------------------|


e|--5-5-5-5--3-3-3-3--5-5-5-5--3-3-3-3--5-5-5-5--3-3-3-3--5-5-5-5-5--|
b|--6-6-6-6--5-5-5-5--6-6-6-6--5-5-5-5--6-6-6-6--5-5-5-5--6-6-6-6-6--|
g|--7-7-7-7--6-6-6-6--7-7-7-7--6-6-6-6--7-7-7-7--6-6-6-6--7-7-7-7-7--|
d|--0-0-0-0--0-0-0-0--0-0-0-0--0-0-0-0--0-0-0-0--0-0-0-0--0-0-0-0-0--|
a|--0-0-0-0--0-0-0-0--0-0-0-0--0-0-0-0--0-0-0-0--0-0-0-0--0-0-0-0-0--|
D|-------------------------------------------------------------------|

end on
e|--5-|
b|--6-|
g|--7-|
d|--0-|
a|--0-|
D|----|

credit Matt Heal and Arin Ozdemir

03 -- White Noise
http://tletabs.webs.com/whitenoise.htm

     Bm                           G
D----7-7-7-7-7-7--4-4-4-4-4-4-----0-0-0-0-0-0-0-0-0-0-0-0-0-0-0-0-0-0-0-0-0-0-0-0-|
B----7-7-7-7-7-7--5-5-5-5-5-5-----5-5-5-5-5-5-3-3-3-3-3-3-2-2-2-2-2-2-3-3-3-3-3-3-|
G----7-7-7-7-7-7--6-6-6-6-6-6-x2--6-6-6-6-6-6-4-4-4-4-4-4-2-2-2-2-2-2-4-4-4-4-4-4-|
D----4-4-4-4-4-4--4-4-4-4-4-4-----0-0-0-0-0-0-0-0-0-0-0-0-0-0-0-0-0-0-0-0-0-0-0-0-|
G----4-4-4-4-4-4--4-4-4-4-4-4-----0-0-0-0-0-0-0-0-0-0-0-0-0-0-0-0-0-0-0-0-0-0-0-0-|
D---------------------------------------------------------------------------------|
Repeat whole section twice

Post Intro:
G   D  Eb C   G   D  Eb C
D-------------------------------------|
B-12--7--8--5---12--7--8--5-----------|
G-12--7--8--5---12--7--8--5-----------|
D-12--7--8--5---12--7--8--5-----------|
G-0---0--0--0---0---0--0--0-----------|
D-------------------------------------| x 2

Verse 1:
  G                Eb
D---------------------------------------|
B---------12-------------8--------------|
G----12------12------8-----8------------|
D-12----12------12s8---8-----8s12-------|
G-0~------------------------------------|
D---------------------------------------| x3
let the low g string ring out

For the last part of the verse do this
  F
D---------------------------------------------|
B---------10-------------------10-------------|
G----10------10----10----10-------10----10----|
D-10----10------10----10----10-------10-------|
G---------------------------------------------|
D---------------------------------------------|

Verse 2
  G                Eb
D---------------------------------------|
B---------12-------------8--------------|
G----12------12------8-----8------------|
D-12----12------12s8---8-----8s12-------|
G---------------------------------------|
D---------------------------------------| x3

for the last part of the verse do this
  F
D---------------------------------------------|
B---------10-------------------10-------------|
G----10------10----10----10-------10----10----|
D-10----10------10----10----10-------10-------|
G---------------------------------------------|
D---------------------------------------------|

Pre-Chorus:

Stab these chords down
  Cm               Dm
D-8-8-8-888-8-8-88-10-10-10-101010-10-10-1010-|
B-8-8-8-888-8-8-88-10-10-10-101010-10-10-1010-|
G-8-8-8-888-8-8-88-10-10-10-101010-10-10-1010-|
D-5-5-5-555-5-5-55-7--7--7--7-7-7--7--7--7-7--|
G-5-5-5-555-5-5-55-7--7--7--7-7-7--7--7--7-7--|
D---------------------------------------------|
(work out the rhythm for your self lol i've got it in clusters which represents 
like a triplet i guess

Stab these chords down
  Cm               Dm
D-8-8-8-888-8-8-88-10-10-10-101010-7-7-7-7--|
B-8-8-8-888-8-8-88-10-10-10-101010-7-7-7-7--|
G-8-8-8-888-8-8-88-10-10-10-101010-7-7-7-7--|
D-5-5-5-555-5-5-55-7--7--7--7-7-7--7-7-7-7--|
G-5-5-5-555-5-5-55-7--7--7--7-7-7--7-7-7-7--|
D-------------------------------------------|

Strum this up and down twice as fast as the stabs
  D
D-7-7-7-7-7-7-7-7-7-7-7-7---|
B-7-7-7-7-7-7-7-7-7-7-7-7---|
G-7-7-7-7-7-7-7-7-7-7-7-7---|
D-7-7-7-7-7-7-7-7-7-7-7-7---|
G-7-7-7-7-7-7-7-7-7-7-7-7---|
D---------------------------|

Chorus:
     Bm                           G
D----7-7-7-7-7-7--4-4-4-4-4-4-----0-0-0-0-0-0-0-0-0-0-0-0-0-0-0-0-0-0-0-0-0-0-0-0-|
B----7-7-7-7-7-7--5-5-5-5-5-5-----5-5-5-5-5-5-3-3-3-3-3-3-2-2-2-2-2-2-3-3-3-3-3-3-|
G----7-7-7-7-7-7--6-6-6-6-6-6-x2--6-6-6-6-6-6-4-4-4-4-4-4-2-2-2-2-2-2-4-4-4-4-4-4-|
D----4-4-4-4-4-4--4-4-4-4-4-4-----0-0-0-0-0-0-0-0-0-0-0-0-0-0-0-0-0-0-0-0-0-0-0-0-|
G----4-4-4-4-4-4--4-4-4-4-4-4-----------------------------------------------------|
D---------------------------------------------------------------------------------|
 Repeat whole section twice

Post Chorus:
G   D  Eb C   G   D  Eb C
D-------------------------------------|
B-12--7--8--5---12--7--8--5-----------|
G-12--7--8--5---12--7--8--5-----------|
D-12--7--8--5---12--7--8--5-----------|
G-0---0--0--0---0---0--0--0-----------|
D-------------------------------------|

Verse 3
  G                Eb
D---------------------------------------|
B---------12-------------8--------------|
G----12------12------8-----8------------|
D-12----12------12s8---8-----8s12-------|
G-0~---------------0~-------------------|
D---------------------------------------| x3

for the last part of the verse do this
  F
D---------------------------------------------|
B---------10-------------------10-------------|
G----10------10----10----10-------10----10----|
D-10----10------10----10----10-------10-------|
G-0~------------------------------------------|
D---------------------------------------------|

Verse 4
  G                Eb
D---------------------------------------|
B---------12-------------8--------------|
G----12------12------8-----8------------|
D-12----12------12s8---8-----8s12-------|
G--0~--------------0--------------------|
D---------------------------------------| x3

for the last part of the verse do this
  F                   D
D--------------------------|
B---------10----------7----|
G----10------10-------7----|
D-10----10------10----7----|
G---------------------7----|
D--------------------------|

Chorus:
     Bm                           G
D----7-7-7-7-7-7--4-4-4-4-4-4-----0-0-0-0-0-0-0-0-0-0-0-0-0-0-0-0-0-0-0-0-0-0-0-0-|
B----7-7-7-7-7-7--5-5-5-5-5-5-----5-5-5-5-5-5-3-3-3-3-3-3-2-2-2-2-2-2-3-3-3-3-3-3-|
G----7-7-7-7-7-7--6-6-6-6-6-6-x2--6-6-6-6-6-6-4-4-4-4-4-4-2-2-2-2-2-2-4-4-4-4-4-4-|
D----4-4-4-4-4-4--4-4-4-4-4-4-----0-0-0-0-0-0-0-0-0-0-0-0-0-0-0-0-0-0-0-0-0-0-0-0-|
G----4-4-4-4-4-4--4-4-4-4-4-4-----------------------------------------------------|
D---------------------------------------------------------------------------------|
 Repeat whole section twice

Post Chorus:
The operator comes down on the line...."
D-7-7-7-7-7-7-5-5-5-5-5-5-4-4-4-4-4-4-2-2-2-2-2-2--7-7-7-0-0---|
B-0-0-0-0-0-0-0-0-0-0-0-0-2-2-2-2-2-2-2-2-2-2-2-2--7-7-7-3-3---|
G-0-0-0-0-0-0-0-0-0-0-0-0-2-2-2-2-2-2-2-2-2-2-2-2--7-6-7-4-3---|
D-0-0-0-0-0-0-0-0-0-0-0-0-2-2-2-2-2-2-2-2-2-2-2-2--7-7-4-0-0---|
G-0-0-0-0-0-0-0-0-0-0-0-0-2-2-2-2-2-2-2-2-2-2-2-2--7-6-4-0-0---|
D--------------------------------------------------------------|
Im not telling you how many times to play the chords. Thats why you have ears =] Hold the Bm but

Pre Solo:
D--12-12-12-12-12-12-9--9--9--12-12-12-12-12-12-9--9--9--|
B--12-12-12-12-12-12-10-10-10-12-12-12-12-12-12-10-10-10-|
G--12-12-12-12-12-12-11-11-11-12-12-12-12-12-12-11-11-11-|
D--9--9--9--9--9--9--9--9--9--9--9--9--9--9--9--9--9--9--|
G--9--9--9--9--9--9--9--9--9--9--9--9--9--9--9--9--9--9--|
D--------------------------------------------------------|

D----------------------|
B--7~-7---7---5--5-----|
G--7~--7---7---6--6----|
D--4~---4---4---4--4---|
G--4~------------------|
D----------------------|

D--12-12-12-12-12-12-9--9--9--12-12-12-12-12-12-9--9--9--|
B--12-12-12-12-12-12-10-10-10-12-12-12-12-12-12-10-10-10-|
G--12-12-12-12-12-12-11-11-11-12-12-12-12-12-12-11-11-11-|
D--9--9--9--9--9--9--9--9--9--9--9--9--9--9--9--9--9--9--|
G--9--9--9--9--9--9--9--9--9--9--9--9--9--9--9--9--9--9--|
D--------------------------------------------------------|

D----------------------|
B--7~-7---7---5--5-----|
G--7~--7---7---6--6----|
D--4~---4---4---4--4---|
G--4~------------------|
D----------------------|

SOLO:
E-7-7-7-7-7-7-5-5-5-5-5-5-4-4-4-4-4-4-2-2-2-2-2-2--|
B-0-0-0-0-0-0-0-0-0-0-0-0-2-2-2-2-2-2-2-2-2-2-2-2--|
G-0-0-0-0-0-0-0-0-0-0-0-0-2-2-2-2-2-2-2-2-2-2-2-2--|
D-0-0-0-0-0-0-0-0-0-0-0-0-2-2-2-2-2-2-2-2-2-2-2-2--|
G-0-0-0-0-0-0-0-0-0-0-0-0-2-2-2-2-2-2-2-2-2-2-2-2--|
D--------------------------------------------------|

D-7-7-7----0-0-0-2-|
B-7-7-7----0-2-3-0-|
G-7-6-7-3--0-0-0-0-|
D-7-7-4-4--2-2-2-2-|
G-7-6-4-3--0-0-0-0-|
D-------4----------|
        pm
Strum Each chord accordingly

LIVE VERSION
D------------------|
B-----11-14--17----|
G-11---------------|
D-----8--11--14----|
G-11---------------|
D------------------|
Strum Each octave 6 times

ALBUM VERSION
Guitar 1:
D--0----|
B--0----|
G--3----|
D--0----|
G--3----|
D--4----|
  pm..... bring in higher string as the strum continues

Guitar 2:
D------------------|
B-----11-14--17----|
G-11---------------|
D-----8--11--14----|
G-11---------------|
D------------------|

Post Solo:
e-------------------------------------------------------------------------------|
B--7-------7--5-----5--7------7--5-----5--5-----5--3-----3--2-----2--0-----0----|
G-----7---------6--------7---------6--------6--------4--------2--------0--------| x2
D--------4--------4--------4---------4--------0--------0--------0--------0------|
G--4----------4--------4---------4--------0--------0--------0--------0----------|
E-------------------------------------------------------------------------------|

The Post solo is exactly the same as the Chorus except he finger picks
single strings in the chords so just use this and finger pick them softly.

Lead up:
E-----------------------------------------|
B-3----5----7----8----10----12---13-------|
G-4----6----7----9----11----12---14-------|
D-0-x6-0-x6-0-x6-0-x6-0--x6-0-x6-0--x12---|
G-0----0----0----0----0-----0----0--------|
D-----------------------------------------|
Outro Chordal Pattern:
E-7---7--------------------------|
B-7-7-7-3----5----7----8---------|
G-7-6-7-4----6----7----9---------|
D-7-7-4-0-x3-0-x3-0-x3-0---------|
G-7-6-4-0----0----0----0---------|
D-0------------------------------|x3
Strum Chords Accordingly

E-7---7-------------------------------------10----10-----|
B-7-7-7-3----5----7----8----10---8----10----11----11-----|
G-7-6-7-4----6----7----9----11---9----11----12----12-----|
D-7-7-4-0-x3-0-x3-0-x3-0-x3-0-x6-0-x3-0--x3-0-x12-0------|
G-7-6-4-0----0----0----0----0----0----0-----0-----0------|
D-0------------------------------------------------------|
Stab the last chord really fast for a dramatic ending!

credit Arin Ozdemir

04 -- MOMENT IN THE SUN
http://tletabs.webs.com/momentinthesun.htm


Intro:
e|--------------------------------------------------------------|
B|-10-10-10-10-10-10-10-10-10-9---10-10-10-10-10-10-10-10-10-9--|
G|--x--x--x--x--x--x--x--x--x-x---x--x--x--x--x--x--x--x--x--x--|
D|--7--7--7--7--7--7--7--7--7-7---7--7--7--7--7--7--7--7--7--7--|
A|--0--0--0--0--0--0--0--0--0-0---9--9--9--9--9--9--9--9--9--9--|
E|--------------------------------------------------------------|

e|--------------------------------9--9--9--9--9--9--9--9--9--9--|
B|-10-10-10-10-10-10-10-10-10-9---10-10-10-10-10-10-10-10-10-9--|
G|--7--7--7--7--7--7--7--7--7-7---7--7--7--7--7--7--7--7--7--7--|
D|--0--0--0--0--0--0--0--0--0-0---0--0--0--0--0--0--0--0--0--0--|
A|--------------------------------------------------------------|
E|--------------------------------------------------------------| REPEAT WHOLE SECTION

Verse:
e----------------------------|
B-----3-----3-------2-----2--|
G----2-----2--2----2-----2-2-| x4
D---3-----3-------2-----2----|
A--0-----0-------0-----0-----|
E----------------------------|

Lead:
e------------|-----------------------|------------|
B--10--5--6--|--10--5--6--8--5-------|--10--5--6--|
G--x---x--x--|--x---x--x--x--x---x2--|--x---x--x--|
D--7---2--3--|--7---2--3--5--2-------|--7---2--3--|
A------------|-----------------------|------------|
E------------|-----------------------|------------|

Pre-Chorus:
e|------9--9---9-9-9--9--9--9---4-4-4-444-4-4-4---2-2-2-222-2-2-2-|
B|------10-10--101010-10-10-10--5-5-5-555-5-5-5---3-3-3-333-3-3-3-|
G|--/11-11-11--111111-11-11-11--6-6-6-666-6-6-6---4-4-4-444-4-4-4-|
D|--/11-11-11--111111-11-11-11--6-6-6-666-6-6-6---4-4-4-444-4-4-4-|
A|--/9--9--9---9-9-9--9--9--9---4-4-4-444-4-4-4---2-2-2-222-2-2-2-|
E|----------------------------------------------------------------|

e|--4-4-4-444-4-4-4---0-0-0---2-2---0-0-0-|
b|--5-5-5-555-5-5-5---0-0-0---3-3---0-0-0-|
g|--6-6-6-666-6-6-6---1-1-1---2-2---1-1-1-|
d|--6-6-6-666-6-6-6---2-2-2---0-0---2-2-2-|
a|--4-4-4-444-4-4-4---2-2-2---------2-2-2-|
E|--------------------0-0-0---------0-0-0-|

Chorus:
e|--------------------------------------------------------------|
B|-10-10-10-10-10-10-10-10-10-9---10-10-10-10-10-10-10-10-10-9--|
G|--x--x--x--x--x--x--x--x--x-x---x--x--x--x--x--x--x--x--x--x--|
D|--7--7--7--7--7--7--7--7--7-7---7--7--7--7--7--7--7--7--7--7--|
A|--0--0--0--0--0--0--0--0--0-0---9--9--9--9--9--9--9--9--9--9--|
E|--------------------------------------------------------------|

e|--------------------------------9--9--9--9--9--9--9--9--9--9--|
B|-10-10-10-10-10-10-10-10-10-9---10-10-10-10-10-10-10-10-10-9--|
G|--7--7--7--7--7--7--7--7--7-7---7--7--7--7--7--7--7--7--7--7--|
D|--0--0--0--0--0--0--0--0--0-0---0--0--0--0--0--0--0--0--0--0--|
A|--------------------------------------------------------------|
E|--------------------------------------------------------------|

e|---------------------------2-2-2---0-0---2-2-2-2-2-2-2-2------------------------------------|
b|-----2-2-2-2-2-2-2-2-------2-2-2---0-0---2-2-2-2-2-2-2-2----11-11--9-9--2-2-2-2-2-2-2-2-----|
g|-----2-2-2-2-2-2-2-2-------2-2-2---1-1---2-2-2-2-2-2-2-2----11-11--9-9--2-2-2-2-2-2-2-2-----|
d|-----2-2-2-2-2-2-2-2-------4-4-4---2-2---0-0-0-0-0-0-0-0----11-11--9-9--2-2-2-2-2-2-2-2-----|
a|-----0-0-0-0-0-0-0-0-------4-4-4---2-2----------------------9--9---7-7--0-0-0-0-0-0-0-0-----|
E|-//--------------------4~--2-2-2---0-0------------------------------------------------------|
                                                                            * * * * * * *
Verse:
e|---------------------------------------------------------------|
B|--3-3----------------------------------------------------------|
G|--2-2-2-2-2-2-2-2-2-2-2-2-2-2---2-2-2-2-2-2-2-2-2-2-2-2-2-2----| x2
D|--3-3-3-3-3-3-3-3-3-3-3-3-3-3---2-2-2-2-2-2-2-2-2-2-2-2-2-2----|
A|--0-0-0-0-0-0-0-0-0-0-0-0-0-0---0-0-0-0-0-0-0-0-0-0-0-0-0-0----|
E|---------------------------------------------------------------|
        * * * * * * * * * * * *   * * * * * * * * * * * * * *
e|---------------------------------------------------------------|
B|---------------------------------------------------------------|
G|--2-2-2-2-2-2-2-2-2-2-2-2-2-2---2-2-2-2-2-2-2-2-2-2-2-2-2-2----|
D|--3-3-3-3-3-3-3-3-3-3-3-3-3-3---2-2-2-2-2-2-2-2-2-2-2-2-2-2----|
A|--0-0-0-0-0-0-0-0-0-0-0-0-0-0---0-0-0-0-0-0-0-0-0-0-0-0-0-0----|
E|---------------------------------------------------------------|
    * * * * * * * * * * * * * *   * * * * * * * * * * * * * *
e|---------------------------------------------------------------|
B|--3-3----------------------------------------------------------|
G|--2-2-2-2-2-2-2-2-2-2-2-2-2-2---2-2-2-2-2-2-2-2-2-2-2-2-2-2----|
D|--3-3-3-3-3-3-3-3-3-3-3-3-3-3---2-2-2-2-2-2-2-2-2-2-2-2-2-2----|
A|--0-0-0-0-0-0-0-0-0-0-0-0-0-0---0-0-0-0-0-0-0-0-0-0-0-0-0-0----|
E|---------------------------------------------------------------|
        * * * * * * * * * * * *   * * * * * * * * * * * * * *
Lead Bit After Last Bar
e------------|
B--10--5--7--|
G--x---x--x--|
D--7---2--4--|
A------------|
E------------|

Pre Chorus
e|------9--9---9-9-9--9--9--9---4-4-4-444-4-4-4---2-2-2-222-2-2-2-|
B|------10-10--101010-10-10-10--5-5-5-555-5-5-5---3-3-3-333-3-3-3-|
G|--/11-11-11--111111-11-11-11--6-6-6-666-6-6-6---4-4-4-444-4-4-4-|
D|--/11-11-11--111111-11-11-11--6-6-6-666-6-6-6---4-4-4-444-4-4-4-|
A|--/9--9--9---9-9-9--9--9--9---4-4-4-444-4-4-4---2-2-2-222-2-2-2-|
E|----------------------------------------------------------------|

e|--4-4-4-444-4-4-4---0-0-0---2-2---0-0-0-|
b|--5-5-5-555-5-5-5---0-0-0---3-3---0-0-0-|
g|--6-6-6-666-6-6-6---1-1-1---2-2---1-1-1-|
d|--6-6-6-666-6-6-6---2-2-2---0-0---2-2-2-|
a|--4-4-4-444-4-4-4---2-2-2---------2-2-2-|
E|--------------------0-0-0---------0-0-0-|

Lead Behind Pre Chorus:
e|--------------------|
B|--10-----9----------|
B|--x---9--x--7--9--6-|
D|--7---x--6--x--x--x-|
A|------7-----5--7--4-|
E|--------------------|

e|--------------------------------------------------------------|
B|-10-10-10-10-10-10-10-10-10-9---10-10-10-10-10-10-10-10-10-9--|
G|--x--x--x--x--x--x--x--x--x-x---x--x--x--x--x--x--x--x--x--x--|
D|--7--7--7--7--7--7--7--7--7-7---7--7--7--7--7--7--7--7--7--7--|
A|--0--0--0--0--0--0--0--0--0-0---9--9--9--9--9--9--9--9--9--9--|
E|--------------------------------------------------------------|

e|--------------------------------9--9--9--9--9--9--9--9--9--9--|
B|-10-10-10-10-10-10-10-10-10-9---10-10-10-10-10-10-10-10-10-9--|
G|--7--7--7--7--7--7--7--7--7-7---7--7--7--7--7--7--7--7--7--7--|
D|--0--0--0--0--0--0--0--0--0-0---0--0--0--0--0--0--0--0--0--0--|
A|--------------------------------------------------------------|
E|--------------------------------------------------------------|

e|---------------------------2-2-2---0-0---2-2-2-2-2-2-2-2----------------|
b|-----2-2-2-2-2-2-2-2-------2-2-2---0-0---2-2-2-2-2-2-2-2----11-11--9-9--|
g|-----2-2-2-2-2-2-2-2-------2-2-2---1-1---2-2-2-2-2-2-2-2----11-11--9-9--|
d|-----2-2-2-2-2-2-2-2-------4-4-4---2-2---0-0-0-0-0-0-0-0----11-11--9-9--|
a|-----0-0-0-0-0-0-0-0-------4-4-4---2-2----------------------9--9---7-7--|
E|-//--------------------4~--2-2-2---0-0----------------------------------|

e---------------------------5-5-5-5-5---------------------2-2-2-2-2-2-2-2--|
B--7-7-7-7-7----------------5-5-5-5-5---------------------2-2-2-2-2-2-2-2--|
G--7-7-7-7-7---9-9--11--13--6-6-6-6-6---11--11--13--14----2-2-2-2-2-2-2-2--|
D--7-7-7-7-7---x-x--x---x---7-7-7-7-7---x---x---x---x-----0-0-0-0-0-0-0-0--|
A--5-5-5-5-5---7-7--9---11--7-7-7-7-7---9---9---11--12---------------------|
E---------------------------5-5-5-5-5--------------------------------------|
                                                          * * * * * * * *
e|---------------------------2-2-2---0-0---2-2-2-2-2-2-2-2--|
b|-----2-2-2-2-2-2-2-2-------2-2-2---0-0---2-2-2-2-2-2-2-2--|
g|-----2-2-2-2-2-2-2-2-------2-2-2---1-1---2-2-2-2-2-2-2-2--|
d|-----2-2-2-2-2-2-2-2-------4-4-4---2-2---0-0-0-0-0-0-0-0--|
a|-----0-0-0-0-0-0-0-0-------4-4-4---2-2--------------------|
E|-//--------------------4~--2-2-2---0-0--------------------|

e|--------------------------------------------------------------|
B|-10-10-10-10-10-10-10-10-10-9---10-10-10-10-10-10-10-10-10-9--|
G|--x--x--x--x--x--x--x--x--x-x---x--x--x--x--x--x--x--x--x--x--|
D|--7--7--7--7--7--7--7--7--7-7---7--7--7--7--7--7--7--7--7--7--|
A|--0--0--0--0--0--0--0--0--0-0---9--9--9--9--9--9--9--9--9--9--|
E|--------------------------------------------------------------|

e|--------------------------------9--9--9--9--9--9--9--9--9--9--|
B|-10-10-10-10-10-10-10-10-10-9---10-10-10-10-10-10-10-10-10-9--|
G|--7--7--7--7--7--7--7--7--7-7---7--7--7--7--7--7--7--7--7--7--|
D|--0--0--0--0--0--0--0--0--0-0---0--0--0--0--0--0--0--0--0--0--|
A|--------------------------------------------------------------|
E|--------------------------------------------------------------|

e--------------------------------------------|
B--9----7----9----7----9----7----9----7---9--|
G--9----7----9----7----9----7----9----7---9--|
D--9----7----9----7----9----7----9----7---9--|
A--7----5----7----5----7----5----7----5---7--|
E--------------------------------------------|
“Don’t care…”

Chorus:
e|--------------------------------------------------------------|
B|-10-10-10-10-10-10-10-10-10-9---10-10-10-10-10-10-10-10-10-9--|
G|--x--x--x--x--x--x--x--x--x-x---x--x--x--x--x--x--x--x--x--x--|
D|--7--7--7--7--7--7--7--7--7-7---7--7--7--7--7--7--7--7--7--7--|
A|--0--0--0--0--0--0--0--0--0-0---9--9--9--9--9--9--9--9--9--9--|
E|--------------------------------------------------------------|

e|--------------------------------9--9--9--9--9--9--9--9--9--9--|
B|-10-10-10-10-10-10-10-10-10-9---10-10-10-10-10-10-10-10-10-9--|
G|--7--7--7--7--7--7--7--7--7-7---7--7--7--7--7--7--7--7--7--7--|
D|--0--0--0--0--0--0--0--0--0-0---0--0--0--0--0--0--0--0--0--0--|
A|--------------------------------------------------------------|
E|--------------------------------------------------------------|

== Final Chorus ==
e|---------------------------2-2-2---------2-2-2-2-2-2-2-2--|
b|-----2-2-2-2-2-2-2-2-------2-2-2---------2-2-2-2-2-2-2-2--|
g|-----2-2-2-2-2-2-2-2-------2-2-2---------2-2-2-2-2-2-2-2--|
d|-----2-2-2-2-2-2-2-2-------4-4-4---2-2---0-0-0-0-0-0-0-0--| x 3
a|-----0-0-0-0-0-0-0-0-------4-4-4---2-2--------------------|
E|-//--------------------4~--2-2-2---0-0--------------------|

e--2-2-2-2-2-2-2-2-2-2-2-2-2-2--0--0--2--|
B--2-2-2-2-2-2-2-2-2-2-2-2-2-2--0--0--2--|
G--2-2-2-2-2-2-2-2-2-2-2-2-2-2--1--1--2--|
D--0-0-0-0-0-0-0-0-0-0-0-0-0-0--2--2--4--|
A-------------------------------2--2--4--|
E-------------------------------0--0--2--|
“Don’t care…”

credit Arin Ozdemir and Matt Heal and Various forum Users.

05 -- WAITING FOR SILENCE
http://tletabs.webs.com/waitingforthesilence.htm

not 100% sure on this one. may be updated soon!

Intro:
e------10-10-------------------------|
B------------10-10-7-7---------------|
G--2/7-----------------7-7-----------|
D------------------------------------|
A------------------------------------|
E------------------------------------| x 4

After second time through come in with rhythm
D, D, Bm,

e------10-10-------------------------|
B------------10-10-7-7---------------|
G--2/7-----------------7-4-----------|
D------------------------------------|
A------------------------------------|
E------------------------------------|

e-0~--|
B-0~--|
G-4~--|
D-5~--|
A-7~--|
E-0~--|
 Em

Verse:
"Opinions can be fatal"
e----------------------------------|
B----------------------------------|
G----------7---------------4-------|
D------4-----7-4-----4-5-4---4-----|
A----5---5-------5-------------5---|
E--7---------------3-------------5-| x3
 pm................................

e-0~--|
B-0~--|
G-4~--|
D-5~--|
A-7~--|
E-0~--|
 Em

e----------------------------------|
B----------------------------------|
G----------7---------------4-------|
D------4-----7-4-----4-5-4---4-----|
A----5---5-------5-------------5---|
E--7---------------3-------------5-| x3
 pm................................

e-0~--|
B-0~--|
G-4~--|
D-5~--|
A-7~--|
E-0~--|
 Em

Pre- Chorus:
e|--------------------------------------------------------------------------------|
b|-----3---3----3----3-----3--------2----2----2----2----2-------3----3----3----3--|
g|---2---2----2----2-----2---2----3----3----3----3----3---3---4----4----4----4----|
d|-0---0----0----0-----0--------4----4----4----4----4-------5----5----5----5----5-|
a|--------------------------------------------------------------------------------|
E|--------------------------------------------------------------------------------|

---------------------------------|
--3-------5----5----5----5----5--|
4---4---4----4----4----4----4----|
------6----6----6----6----6------|
---------------------------------|
---------------------------------|

I cant live
e|-----------------------------|
b|-2-2-2-2-2-2-2-2-2-2-2-2-2-2-|
g|-2-2-2-2-2-2-2-2-2-2-2-2-2-2-|
d|-2-2-2-2-2-2-2-2-2-2-2-2-2-2-|
a|-0-0-4-4-4-4-4-4-4-4-4-4-4-4-|
E|-----------------------------| x2
     pm.......................

Chorus:
e|--3-3-3-3-----------2-2-2-2--2-2-0-0--|
B|--3-3-3-3--2-2-2-2--2-2-2-2--3-3-3-3--|
G|--0-0-0-0--2-2-2-2--2-2-2-2--4-4-4-4--| X2
D|--0-0-0-0--0-0-0-0--4-4-4-4--4-4-4-4--|
A|--2-2-2-2--x-x-x-x--4-4-4-4--2-2-2-2--|
E|--3-3-3-3--3-3-3-3--2-2-2-2-----------|

e|--3-3-3-3-----------2-2-2-2--2-2-2-2--|
B|--3-3-3-3--2-2-2-2--3-3-3-3--3-3-3-3--|
G|--0-0-0-0--2-2-2-2--2-2-2-2--4-4-4-4--|
D|--0-0-0-0--2-2-2-2--0-0-0-0--4-4-4-4--|
A|--2-2-2-2--0-0-0-0-----------2-2-2-2--|
E|--3-3-3-3-----------------------------|

e|--2-2-2-2--3-3-3-3--3-3-3-3--|
B|--2-2-2-2--3-3-3-3--3-3-3-3--|
G|--2-2-2-2--4-4-4-4--3-3-3-3--|
D|--4-4-4-4--5-5-5-5--5-5-5-5--| and back to intro line
A|--4-4-4-4--5-5-5-5--5-5-5-5--|
E|--2-2-2-2--3-3-3-3--3-3-3-3--|

Intro Riff:
e------10-10-------------------------|
B------------10-10-7-7---------------|
G--2/7-----------------7-7-----------|
D------------------------------------|
A------------------------------------|
E------------------------------------|x2
Play Bm and G underneath the intro riff.

Verse:
e----------------------------------|
B----------------------------------|
G----------7---------------4-------|
D------4-----7-4-----4-5-4---4-----|
A----5---5-------5-------------5---|
E--7---------------3-------------5-| x3


e-0~--|
B-0~--|
G-4~--|
D-5~--|
A-7~--|
E-0~--|
 Em

Pre-Chorus:
e|---------------------------------------------------------------------------------|
b|-----3---3----3----3-----3--------2----2----2----2----2-------3----3----3----3---|
g|---2---2----2----2-----2---2----3----3----3----3----3---3---4----4----4----4-----|
d|-0---0----0----0-----0--------4----4----4----4----4-------5----5----5----5----5--|
a|---------------------------------------------------------------------------------|
E|---------------------------------------------------------------------------------|

---------------------------------|
--3-------5----5----5----5----5--|
4---4---4----4----4----4----4----|
------6----6----6----6----6------|
---------------------------------|
---------------------------------|

I cant live
e|-----------------------------|
b|-2-2-2-2-2-2-2-2-2-2-2-2-2-2-|
g|-2-2-2-2-2-2-2-2-2-2-2-2-2-2-|
d|-2-2-2-2-2-2-2-2-2-2-2-2-2-2-|
a|-0-0-4-4-4-4-4-4-4-4-4-4-4-4-|
E|-----------------------------| x2
     pm.......................

Chorus:
e|--3-3-3-3-----------2-2-2-2--2-2-0-0--|
B|--3-3-3-3--2-2-2-2--2-2-2-2--3-3-3-3--|
G|--0-0-0-0--2-2-2-2--2-2-2-2--4-4-4-4--| X2
D|--0-0-0-0--0-0-0-0--4-4-4-4--4-4-4-4--|
A|--2-2-2-2--x-x-x-x--4-4-4-4--2-2-2-2--|
E|--3-3-3-3--3-3-3-3--2-2-2-2-----------|

e|--3-3-3-3-----------2-2-2-2--2-2-2-2--|
B|--3-3-3-3--2-2-2-2--3-3-3-3--3-3-3-3--|
G|--0-0-0-0--2-2-2-2--2-2-2-2--4-4-4-4--|
D|--0-0-0-0--2-2-2-2--0-0-0-0--4-4-4-4--|
A|--2-2-2-2--0-0-0-0-----------2-2-2-2--|
E|--3-3-3-3-----------------------------|

e|--2-2-2-2--3-3-3-3--3-3-3-3--|
B|--2-2-2-2--3-3-3-3--3-3-3-3--|
G|--2-2-2-2--4-4-4-4--3-3-3-3--|
D|--4-4-4-4--5-5-5-5--5-5-5-5--|
A|--4-4-4-4--5-5-5-5--5-5-5-5--|
E|--2-2-2-2--3-3-3-3--3-3-3-3--|

e------------------------------7-9-10--|
B----------7---7-8-7-8-10-8-10---------|
G--7-6-7-9---9-------------------------|
D--------------------------------------|
A--------------------------------------|
E--------------------------------------|

Interlude:
e--9--9--9--9--9--9--10-10-10-10-10-10-|
B--10-10-10-10-10-10-12-12-12-12-12-12-|
G--11-11-11-11-11-11-11-11-11-11-11-11-|
D--11-11-11-11-11-11-12-12-12-12-12-12-| X2
A--9--9--9--9--9--9--10-10-10-10-10-10-|
E--------------------------------------|
Hold the Gmaj7 on the last time until quite bit with strings:

e-------------------------------------------------------2-------|
B--0---0---0---0---2---2---2---2---2---2-3-2----------3----3----|
G----0---0---0---0---2---2---2---2---2--------2-----4--------4--|
D----------------------------------4--------------4-------------| X2
A---------------------------------------------------------------|
E--3------------------------------------------------------------|

e----------------2--3---|
B--0---0---2---2----3---|
G----0---0---2------3---|
D-------------------5---|
A-----------------------|
E--3--------------------|

Lead break w/octave and delay:
e------------10----------------7---------|
B--7-10-7-------10-7----7-8-7----7-------|
G--------------------7-------------7-----|
D------------------------------------9---|
A----------------------------------------|
E----------------------------------------|

e------------10----------------7---------|
B--7-10-7-------10-7----7-8-7----7-------|
G--------------------7-------------7-----|
D------------------------------------7---|
A----------------------------------------|
E----------------------------------------|

e------------------------------------|
B--7-----10-7-------------7-8-10-12--|
G----7--------7-----7---7------------|
D------9--------9-----9--------------|
A------------------------------------|
E------------------------------------|

e-------------------------------------------------------------------------------------------------|
B-10~-----------------12-12-14-14-14~---------------15-15--17-17-17~----------------19-19-20-20-20|
G-------------------------------------------------------------------------------------------------|
D-7~------------------9--9--11-11-11~---------------12-12--14-14-14~----------------16-16-17-17-17|
A0-0-0-0-0-0-0-0-0-0-0-0-0-0-0-0-0-0-0-0-0-0-0-0-0-0-0-0-0-0-0-0-0-0-0-0-0-0-0-0-0-0-0-0-0-0-0-0-0|
E-------------------------------------------------------------------------------------------------|
Hang on the last G octave as needed

e------------------|
B------------------|
G--2-2-2-2-2-2-2-2-|
D--2-2-2-2-2-2-2-2-|
A--0-0-0-0-0-0-0-0-|
E------------------|

Chorus:
e|--3-3-3-3-----------2-2-2-2--2-2-0-0--|
B|--3-3-3-3--2-2-2-2--2-2-2-2--3-3-3-3--|
G|--0-0-0-0--2-2-2-2--2-2-2-2--4-4-4-4--| X2
D|--0-0-0-0--0-0-0-0--4-4-4-4--4-4-4-4--|
A|--2-2-2-2--x-x-x-x--4-4-4-4--2-2-2-2--|
E|--3-3-3-3--3-3-3-3--2-2-2-2-----------|

e|--3-3-3-3-----------2-2-2-2--2-2-2-2--|
B|--3-3-3-3--2-2-2-2--3-3-3-3--3-3-3-3--|
G|--0-0-0-0--2-2-2-2--2-2-2-2--4-4-4-4--|
D|--0-0-0-0--2-2-2-2--0-0-0-0--4-4-4-4--|
A|--2-2-2-2--0-0-0-0-----------2-2-2-2--|
E|--3-3-3-3-----------------------------|

e|--2-2-2-2--0-0-0-0-------------------|
B|--2-2-2-2--0-0-0-0--2-2-2-2-2-2-2-2--|
G|--2-2-2-2--0-0-0-0--2-2-2-2-2-2-2-2--|
D|--4-4-4-4--2-2-2-2--2-2-2-2-2-2-2-2--|
A|--4-4-4-4--2-2-2-2--0-0-0-0-0-0-0-0--|
E|--2-2-2-2--0-0-0-0-------------------|

Intro Riff plus extra:
e------10-10------------------------|
B------------10-10-7-7--------------|
G--2/7-----------------7-6----------|
D--------------------------7-5-4-2--|
A-----------------------------------|
E-----------------------------------|
Play D and F#
e------10-10------------------7----7-9--|
B------------10-10-7-8-7-8-10---10------|
G--2/7----------------------------------|
D---------------------------------------|
A---------------------------------------|
E---------------------------------------| REPEAT WHOLE SECTION
Play G and A

Intro Riff:
e------10-10-------------------------|
B------------10-10-7-7---------------|
G--2/7-----------------7-7-----------|
D------------------------------------|
A------------------------------------|
E------------------------------------| x 3
Bm G Bm G Bm G Em

e-0~--|
B-0~--|
G-4~--|
D-5~--|
A-7~--|
E-0~--|
 Em

Outro with delay:
e-----------------|
B-----------------|
G---------4-------|
D-----5-4---4-5---|
A---7-----------7-|
E-0---------------|
pm................

credit Arin Ozdemir and Jonno Skourletos


06 -- MAKE THE CALL
http://www.ultimate-guitar.com/tabs/t/the_living_end/make_the_call_tab.htm

note....i did not tab this....just thought id post it for all the living end fans
out there!!!!! ENJOY :D

MAKE THE CALL
THE LIVING END
WHITE NOISE (2008)
tabbed by Habibster

Drop D Tuning

verse/pre chorus has a kinda of gallopy feel (chug/cha-chug/cha-chug)

Intro
e--------------------------|--------------------------|
B--------------------------|--------------------------|
G--------------------------|--------------------------|
D--------------------------|-10h12-12-12-12-12--------|
A--------3p0-----6p0-5-(x3)|-10h12-12-12-12-12--------|
D--0-3-5-----5p0-----------|-10h12-12-12-12-12--(x2---|


Verse:
(p.m)
e---------------------|-----------------------|
B---------------------|-----------------------|
G---7--7-7------------|-----------------------|
D---7--7-7-(ect)------|-----------------(etc)-|
A---5--5-5------------|-------3p0-------------|
D---------------------|-0-3h5-----5-0---------|

e-----------------------|
B-----------------------|
G-----------------------|
D-10h12-12-12-12-12-----|
A-10h12-12-12-12-12-----|
D-10h12-12-12-12-12-----|


Pre Chorus thingy
e---------------------|-----------------|
B---------------------|-----------------|
G---------------------|-----------------|
D---5-5-5s8s3-5-5-5---|-----------------|
A---5-5-5s8s3-5-5-5---|-------6p5-------|
D---5-5-5s8s3-5-5-5---|-5h7-8-----8-----|

Palm mute where required below.
e-----------------------|-----------------------|
B-----------------------|-----------------------|
G-----------------------|-----------------------|
D---5-5-5s8s3-5-5-5-5-5-|-7-8-8-8-8s7-7-7-7-----|
A---5-5-5s8s3-5-5-5-5-5-|-7-8-8-8-8s7-7-7-7-----|
D---5-5-5s8s3-5-5-5-5-5-|-7-8-8-8-8s7-7-7-7-----|

e-----------------------|
B-----------------------|
G-----------------------|
D-10h12-12-12-12-12-----|
A-10h12-12-12-12-12-----|
D-10h12-12-12-12-12-----|

Etc.

e-----------------------|-----------------------|---------------------------|
B-----------------------|-----------------------|---------------------------|
G-----------------------|-----------------------|---------------------------|
D-10h12-12-12-12-12-----|-10h12-12-12-12-12-----|-10h12-12-10h12-12-10h12-12|
A-10h12-12-12-12-12-----|-10h12-12-12-12-12-----|-10h12-12-10h12-12-10h12-12|
D-10h12-12-12-12-12-----|-10h12-12-12-12-12-----|-10h12-12-10h12-12-10h12-12|

chorus
D,C,A#,C,A,C

something like that, staccato/bouncy feel at the start of chorus

e-------------------------|-----------------|
B-------------------------|-----------------|
G-------------------------|-----------------|
D-12-12-10-11-12-12-(etc)-|-8-8-5-7-8-8-----|
A-12-12-10-11-12-12-------|-8-8-5-7-8-8-----|
D-12-12-10-11-12-12-------|-8-8-5-7-8-8-----|

Solo (kinda wrong)
e------------------------------0-3---0-3---0-3--0-3--|
B---2-5--2-5--2-5--2-5--2-5--2-----2-----2-----2-----|
G--3----3----3----3----3-----------------------------|
D----------------------------------------------------|
A----------------------------------------------------|
D----------------------------------------------------|

e--0-3-6--0-3-6--0-3-6--0-3-6--0-6-9--0-6-9--0-6-9--0-6-9-10^|
B------------------------------------------------------------|
G------------------------------------------------------------|
D------------------------------------------------------------|
A------------------------------------------------------------|
D------------------------------------------------------------|
My favourite part next
Breakdown:
e------------------------------------------------------------|
B------------------------------------------------------------|
G------------------------------------------------------------|
D---0-3-2--7-3-5----s-s-0-3-2-0--7-3-5-----------------------|
A---0-3-2--7-3-5----s-s-0-3-2-0--7-3-5--(ect)----------------|
D---0-3-2--7-3-5----s-s-0-3-2-0--7-3-5-----------------------|
(keep doing that
til drums come in)


e----------------------------------------|
B----------------------------------------|
G----------------------------------------|
D-10h12-12-12-12--10h12-12-12-12-12-12-12|
A-10h12-12-12-12--10h12-12-12-12-12-12-12|
D-10h12-12-12-12--10h12-12-12-12-12-12-12|

(rapid fire D's  )

e-------------------------|----------------------------------------|
B-------------------------|----------------------------------------|
G-------------------------|----------------------------------------|
D-5-5-5-8-8-8-10-10-10-10-|---8-8-8-8-8-8---10-10-10-10-10---------|
A-5-5-5-8-8-8-10-10-10-10-|---8-8-8-8-8-8---10-10-10-10-10---------|
D-5-5-5-8-8-8-10-10-10-10-|---8-8-8-8-8-8---10-10-10-10-10-let ring|

"So Make The Ca-ll"
(Do that a few times) "what're you gonna do if they reset the bomb"

e------------------------------------------|
B------------------------------------------|
G------------------------------------------|
D---pickslide~~-0-3-2-0--7-3-5-------------|
A---pickslide~~-0-3-2-0--7-3-5--(ect)------|
D---pickslide~~-0-3-2-0--7-3-5-------------|

e------------------------------|
B------------------------------|
G------------------------------|
D---0-3-2-0--7-3-0-------------|
A---0-3-2-0--7-3-0-------------|
D---0-3-2-0--7-3-0-------------|

credit to scotty28

07 -- LOADED GUN
http://tletabs.webs.com/loadedgun.htm

Loaded Gun

Tabbed by Jonno S

potato_man101263@hotmail.com


Most of the song, if not all, is played with a short 8th note delay


Intro

e--8p0-5p0-8p0-5p0-8p0-3p0-7p0-3p0-5p0-1p0-5p0-1p0-5p0-3p0-7p0-3p0----|
B---------------------------------------------------------------------|
G---------------------------------------------------------------------| Repeat as needed
D---------------------------------------------------------------------|
A---------------------------------------------------------------------|
E---------------------------------------------------------------------|


e----------------------3---3----------------------------3---3---------|
B----------------------3---3----------------------------3---3---------|
G--2-------------------0---0----------------------------0---0---------|
D--2-------------------0---0------3---------------------0---0---------|
A--0-------------------x---x------3---------------------x---x---------|
E----------------------3---3------1---------------------3---3---------|

"Yeaaaaaaaaah"

e--5p0-1p0-5p0-1p0--|
B-------------------|
G-------------------| X2
D-------------------|
A-------------------|
E-------------------|

e-----------------3--|
B--5--------------3--|
G--5--------------0--|
D--3--------------0--|
A--3--------------X--|
E-----------------3--|

Main riff

e--------------------------------------|----5-----------|
B----5p0---3-----5p0---3----3h5--------|----5-----------|
G----5p0---4-----5p0---4----4h5---(X3)-|----5--(strum)--| (X2) pick + fingers
D--------------------------------------|----3-----------|
A--0-----0-----0-----0-----0-----------|----3-----------|
E--------------------------------------|----------------|


Verse 1

e--------------------------------------|---------------|
B----5p0---3-----5p0---3---------------|--------5------|
G----5p0---4-----5p0---4----------(X3)-|------5--------| (X2)
D--------------------------------------|----3----------|
A--------------------------------------|---------------|
E--------------------------------------|---------------|


Prechorus

e--------------------------------------------------5----|
B--------------------------------------------------5----|
G--5-5-5-5-5-5-5-5----7---7---7---7--9--7--5--4----5----|
D--5-5-5-5-5-5-5-5------6---6---6----10-9--7--5----3----|
A--3-3-3-3-3-3-3-3--7----------------0--0--0--0---------|
E-------------------------------------------------------|

e--------------------------------------------------5----3-----|
B--------------------------------------------------5----3-----|
G--5-5-5-5-5-5-5-5----7---7---7---7--9--7--5--4----5----0-----|
D--5-5-5-5-5-5-5-5------6---6---6----10-9--7--5----3----0--2--|
A--3-3-3-3-3-3-3-3--7----------------0--0--0--0---------X--2--|
E-------------------------------------------------------3--0--|


Chorus

e-------------------------------------------------------------------|
B---------------------------------10--------------------------------|
G--2--9-9-9-9-9-9-9-9-9-9-9-9-9-9-9--9-9-9-9-9-9-9-9-9-9-9-9-9-9----|
D--2--7-7-7-7-7-7-7-7-7-7-7-7-7-7-7--7-7-7-7-7-7-7-7-7-7-7-7-7-7----|
A--0------------------------------0---------------------------------|
E-------------------------------------------------------------------|
      Pm......................       Pm.......................
                                                    (X2)
e----------------------------------------------------------------------------------------------|
B--10---------------------------------------------10-------------------------------------------|
G--10--10-10-10-10-10-10-10-10-10-10-10-10-10-10--10-10-10-10-10-10-10-10-10-10-10-10-10-10-10-|
D--7---7--7--7--7--7--7--7--7--7--7--7--7--7--7---7--7--7--7--7--7--7--7--7--7--7--7--7--7--7--|
A--0----------------------------------------------0--------------------------------------------|
E----------------------------------------------------------------------------------------------|
       Pm...........................              Pm................................


The guitar then spits into two parts...

Guitar 1

e-------------------------------------|
B-------------------------------------|
G--5-5-5-5-5-5-5-5-5-5-5-5-5-5-5-5----|
D--5-5-5-5-5-5-5-5-5-5-5-5-5-5-5-5----|
A--3-3-3-3-3-3-3-3-3-3-3-3-3-3-3-3----|
E-------------------------------------|


e--5--5--5\----5--5--5--5--|
B--5--5--5\----5--5--5--5--|
G--5--5--5\----5--5--5--5--|
D--4--4--4\----4--4--4--4--|
A--0--0--0-----0--0--0--0--|
E--------------------------|

e------------------------------|
B------------------9-9-9-9-9\--|
G--7-7-7-7-7-7-7-7-9-9-9-9-9\--|
D--7-7-7-7-7-7-7-7-9-9-9-9-9\--|
A--5-5-5-5-5-5-5-5-7-7-7-7-7\--|
E------------------------------|

Guitar 2

e--8p0-10p-12p0-8p0-10p0-12p0--|
B------------------------------|
G------------------------------| repeat as needed
D------------------------------|
A------------------------------|
E------------------------------|


...and then back to normal

e--------------------------------------|----5-----------|
B----5p0---3-----5p0---3----3h5--------|----5-----------|
G----5p0---4-----5p0---4----4h5---(X3)-|----5--(strum)--| pick + fingers
D--------------------------------------|----3-----------|
A--0-----0-----0-----0-----0-----------|----3-----------|
E--------------------------------------|----------------|

Verse 2
                        first ending              second ending
e--5\-----------------------------------|    |---------0-----------|  |---------------------------|
B--5\-----------------------------------|    |-----1-------1-0h1p0-|  |---------1-------0h1p0-----|
G--2\-x-x-x-x-x-x-x-x-x-x-x-x-x-x--(X3)-| X2 |---------------------|  |-----0-----------------2-0-|
D--2\-x-x-x-x-x-x-x-x-x-x-x-x-x-x-------|    |--3------------------|  |--3------------------------|
A--0------------------------------------|    |---------------------|  |---------------------------|
E---------------------------------------|    |---------------------|  |---------------------------|


Prechorus

e--------------------------------------------------5----|
B--------------------------------------------------5----|
G--5-5-5-5-5-5-5-5----7---7---7---7--9--7--5--4----5----|
D--5-5-5-5-5-5-5-5------6---6---6----10-9--7--5----3----|
A--3-3-3-3-3-3-3-3--7----------------0--0--0--0---------|
E-------------------------------------------------------|

e--------------------------------------------------5----3-----|
B--------------------------------------------------5----3-----|
G--5-5-5-5-5-5-5-5----7---7---7---7--9--7--5--4----5----0-----|
D--5-5-5-5-5-5-5-5------6---6---6----10-9--7--5----3----0--2--|
A--3-3-3-3-3-3-3-3--7----------------0--0--0--0---------X--2--|
E-------------------------------------------------------3--0--|


Chorus

e-------------------------------------------------------------------|
B---------------------------------10--------------------------------|
G--2--9-9-9-9-9-9-9-9-9-9-9-9-9-9-9--9-9-9-9-9-9-9-9-9-9-9-9-9-9----|
D--2--7-7-7-7-7-7-7-7-7-7-7-7-7-7-7--7-7-7-7-7-7-7-7-7-7-7-7-7-7----|
A--0------------------------------0---------------------------------|
E-------------------------------------------------------------------|
      Pm......................       Pm.......................
                                                    (X2)
e----------------------------------------------------------------------------------------------|
B--10---------------------------------------------10-------------------------------------------|
G--10--10-10-10-10-10-10-10-10-10-10-10-10-10-10--10-10-10-10-10-10-10-10-10-10-10-10-10-10-10-|
D--7---7--7--7--7--7--7--7--7--7--7--7--7--7--7---7--7--7--7--7--7--7--7--7--7--7--7--7--7--7--|
A--0----------------------------------------------0--------------------------------------------|
E----------------------------------------------------------------------------------------------|
       Pm...........................              Pm................................

Guitar splits again...

Guitar 1

e-------------------------------------|
B-------------------------------------|
G--5-5-5-5-5-5-5-5-5-5-5-5-5-5-5-5----|
D--5-5-5-5-5-5-5-5-5-5-5-5-5-5-5-5----|
A--3-3-3-3-3-3-3-3-3-3-3-3-3-3-3-3----|
E-------------------------------------|


e--5--5--5\----5--5--5--5--|
B--5--5--5\----5--5--5--5--|
G--5--5--5\----5--5--5--5--|
D--4--4--4\----4--4--4--4--|
A--0--0--0-----0--0--0--0--|
E--------------------------|

e-----------------------------------|
B------------------9-9-9-9-9-9-9-9--|
G--7-7-7-7-7-7-7-7-9-9-9-9-9-9-9-9--|
D--7-7-7-7-7-7-7-7-9-9-9-9-9-9-9-9--|
A--5-5-5-5-5-5-5-5-7-7-7-7-7-7-7-7--|
E-----------------------------------|

Guitar 2

e--8p0-10p-12p0-8p0-10p0-12p0--|
B------------------------------|
G------------------------------| repeat as needed
D------------------------------|
A------------------------------|
E------------------------------|


Middle 8

e---------------------------------------------------3-----------|  |--3--|
B---------------------------------------------------3-----------|  |--3--|
G--10-10-10-10-10-10-10-10-10-10-10-10-10-10-10-10--0-----2--9*-|X4|--0--|     *omit on 4th repeat
D--10-10-10-10-10-10-10-10-10-10-10-10-10-10-10-10--0--2--2--9*-|  |--0--|
A--8--8--8--8--8--8--8--8--8--8--8--8--8--8--8--8---x--2--0--7*-|  |--x--|
E---------------------------------------------------3--0-----0--|  |--3--|

"With a loaded gun..."

e--8p0-5p0-8p0-5p0-8p0-3p0-7p0-3p0-5p0-1p0-5p0-1p0-5p0-3p0-7p0-3p0----|
B---------------------------------------------------------------------|
G---------------------------------------------------------------------| Repeat as needed
D---------------------------------------------------------------------|
A---------------------------------------------------------------------|
E---------------------------------------------------------------------|


e------------------------------3--|
B--1-1-1-1-1-1-1-1-1-1-1-1-1---3--|
G--2-2-2-2-2-2-2-2-2-2-2-2-2---0--|
D--3-3-3-3-3-3-3-3-3-3-3-3-3---0--|
A--3-3-3-3-3-3-3-3-3-3-3-3-3---x--|
E--1-1-1-1-1-1-1-1-1-1-1-1-1---3--|
   Pm............


Final chorus...listen to the rhythm if this looks too messy

e--------------------------------------------------------------------------------------------------|
B10-10-10-10----10-------10-10-10-10-10----10--------10-10-10-10----10-------10-10-10-10-10----10--|
G9--9--9--9--9--9--9--9--9--9--9--9--9--9--9--9------9--9--9--9--9--9--9--9--9--9---9--9--9--9--9|
D7--7--7--7--7--7--7--7--7--7--7--7--7--7--7--7------7--7--7--7--7--7--7--7--7--7--7--7--7--7--7--7|
A0--0--0--0--0--0--0--0--0--0--0--0--0--0--0--0------0--0--0--0--0--0--0--0--0--0------0--0--0--0--0|
E------------------------------------------------------------------------------------------------|
                                                        (X2)
e--------------------------------------------------------------------------------------------------|
B10-10-10-10----10-------10-10-10-10-10----10--------10-10-10-10----10-------10-10-10-10-10----10--|
G10-10-10-10-10-10-10-10-10-10-10-10-10-10-10-10-----10-10-10-10-10-10-10-10-10-10-10-10-10-10-10-10
D7--7--7--7--7--7--7--7--7--7--7--7--7--7--7--7------7--7--7--7--7--7--7--7--7--7--7--7--7--7--7--7|
A0--0--0--0--0--0--0--0--0--0--0--0--0--0--0--0------0--0--0--0--0--0--0--0--0--0--0--0--0--0--0--0|
E--------------------------------------------------------------------------------------------------|


Guitar 1

e-------------------------------------|
B-------------------------------------|
G--5-5-5-5-5-5-5-5-5-5-5-5-5-5-5-5----|
D--5-5-5-5-5-5-5-5-5-5-5-5-5-5-5-5----|
A--3-3-3-3-3-3-3-3-3-3-3-3-3-3-3-3----|
E-------------------------------------|


e--5--5--5\----5--5--5--5--|
B--5--5--5\----5--5--5--5--|
G--5--5--5\----5--5--5--5--|   (another guitar slides into the same position an octave higher)
D--4--4--4\----4--4--4--4--|
A--0--0--0-----0--0--0--0--|
E--------------------------|

e------------------------------|
B------------------9-9-9-9-9\--|
G--7-7-7-7-7-7-7-7-9-9-9-9-9\--|
D--7-7-7-7-7-7-7-7-9-9-9-9-9\--|
A--5-5-5-5-5-5-5-5-7-7-7-7-7\--|
E------------------------------|

Guitar 2

e--8p0-10p-12p0-8p0-10p0-12p0--|
B------------------------------|
G------------------------------| repeat as needed
D------------------------------|
A------------------------------|
E------------------------------|


                    first repeat      last time
e--------------------------------------|----5-----------|-----------|
B----5p0---3-----5p0---3----3h5--------|----5-----------|---------1-|
G----5p0---4-----5p0---4----4h5---(X3)-|----5--(strum)--|------0----|
D--------------------------------------|----3-----------|--3--------|
A--0-----0-----0-----0-----0-----------|----3-----------|-----------|
E--------------------------------------|----------------|-----------|

Done!


08 -- KID

http://tletabs.webs.com/kid.htm

KID

Intro:
Guitar 1:
E--0---0--0--0--|
B--10--9--7--5--|
G--9---9--7--6--|
D---------------|
A---------------|
E---------------| *Strum each triad as many times need. Repeat 4 times*

Guitar 2:
E--9~-----|
B--10~----|
G--9~-----|
D--11~----|
A---------|
E---------| *Strum For Duration of Intro*

There is a bell on the intro hitting the notes of:
C#, B, D, C#
C#, B, D, E
C#, B, D, C#
C#, B, D, E

Verse 1:
Just Guitar and Vocal-
Guitar 2:
E--9---9------10--10--9---|
B--10--9------10--10--10--|
G--9---9------11--10--9---|
D--11--10-x2--12--12--11--|
A-------------------------|
E-------------------------| *Strum As Many Times As Needed*

Keep it up, keep it up ,You’re going to kill the kid
Soon enough, soon enough He’s gonna flip the lid
Will you be happy then? Wearing a satisfied grin

Verse 2: *Just Use Full Barre Chords*

A............................................C#m
Take it out, take it out, take it all out on him
A.........................................C#m
Take away his heart, drain all the life within
D.......................Dm.....................A
Will you be happy then? Wearing a satisfied grin

Bridge:
Bm......................................... E
You wear your heart on your sleeve
Bm..........................E
Living your life in a dream
Bm.....................................E
Believe what you want to believe
E
And I thought this was supposed to be fun...

Verse 3:
A................................................C#m
Keep it up, keep it up ,You’re going to kill the kid
A.............................................C#m
Soon enough, soon enough He’s gonna flip the lid
D......................Dm.....................A
Will you be happy then? Wearing a satisfied grin

Pre-Solo:
Guitar 1:
E--0---0--0--0--|
B--10--9--7--5--|
G--9---9--7--6--|
D---------------|
A---------------|
E---------------| *Strum each triad as many times need. Repeat 4 times*

Guitar 2:
E--9~-----|
B--10~----|
G--9~-----|
D--11~----|
A---------|
E---------| *Strum For Duration of Pre-Solo*

Solo:
E-----------------0-0-0-------4!---------|
B--(5)----(5)-----5-5-5-------5!---------|
G---6-4-6--6-4-6----7-6-4-4s6-6!----2----|
D----------------------------------2-2---|
A-0~----------------------------0h4---4--|
E----------------------------------------|
!= give the bigsby a wobble

E------------------12-10-9-------9-9!-----------------|
B--(5)----(5)------10-10-10--12----9!-----------------|
G---6-4-6--6-4-6---9--9--9---9-----9!--9h11p9---------|
D----------------------------11----11!--------11p9p7--|
A-0~--------------------------------------------------|
E-----------------------------------------------------|
!= give the bigsby a wobble

E----0-0-0-------0-0-0--------0-----|
B----5-5-5-0-----5-5-5-0-----3-3----|
G------7-6-4-2-2---7-6-4-2--2-------|
D-0~-----------------------3--------|
A-----------------------------------|
E-----------------------------------|

E-----9----7----9----7----9----7----9--|
B------10---10---10---10---10---10-----|
G--------9----9----9----9----9----9----|
D--------------------------------------|
A-0~-----------------------------------|
E--------------------------------------|

Chords Behind The Solo Are:
A, C#m, A, C#m, D, DM, A

Bridge:
Bm..........................................E
You wear your heart on your sleeve
Bm.............................E
You live your life in a dream
Bm....................................E
Believe what you want to believe
........Cmaj7.............................Bm
After all that we’ve been through now
Cmaj7.......................Bm
Still so much to do now
E
With you now

Verse 4:

A.................................................. ........C#m
That kid’s not right There’s something wrong with him
A..............................................C#m
Wound up too tight Keeping it all within yeah
D...........................................Dm
Don’t let them see your fear Stand up and wipe away the tears
A.................................................. ........C#m
Keep it up, keep it up ,You’re going to kill the kid
A.................................................. ...........C#m
Soon enough, soon enough He’s gonna flip the lid
D.....................................Dm.................................A
Will you be happy then? Wearing a satisfied grin

Outtro:

Guitar 1:
E--0---0--0--0--|
B--10--9--7--5--|
G--9---9--7--6--|
D---------------|
A---------------|
E---------------| *Strum each triad as many times need. Repeat 2 times*

Guitar 1:
E--0---0--0--0--0--0---12---------|
B--10--9--7--5--7--6---12---------|
G--9---9--7--6--7--7---x----------|
D----------------------11---------|
A----------------------12---------|
E---------------------------------| *Strum each triad as many times need.

Tabbed By Arin Ozdemir =]
Thanks To Jonno who also lended a helping hand.

09 -- 21st CENTURY

missing! if anyone has it please pm me :)

10 -- HEY HEY DISBELIEVER
http://tletabs.webs.com/heyheydisbeliever.htm

Hey Hey Disbeliever

intro: (clean)
e|-0-0-3-3-1-1-3-3-0-0-3-3-1-1-3-3-0-0-3-3-1-1-3-3-0-0-3-3-0-0-0-0-0-0-0-0-|
b|-1-1-3-3-1-1-3-3-1-1-3-3-1-1-3-3-1-1-3-3-1-1-3-3-1-1-3-3-1-1-1-1-1-1-1-1-|
g|-2-2-0-0-2-2-0-0-2-2-0-0-2-2-0-0-2-2-0-0-2-2-0-0-2-2-0-0-2-2-2-2-2-2-2-2-|
d|-2-2-0-0-3-3-0-0-2-2-0-0-2-2-0-0-2-2-0-0-3-3-0-0-2-2-0-0-3-3-3-3-3-3-3-3-|
a|-0-0-2-2-3-3-2-2-0-0-2-2-3-3-2-2-0-0-2-2-3-3-2-2-0-0-2-2-3-3-3-3-3-3-3-3-|
E|-----3-3-1-1-3-3-----3-3-1-1-3-3-----3-3-1-1-3-3-----3-3-1-1-1-1-1-1-1-1-|

Main Riff (Octave Pedal)
e-------------------------------------------------|
B-------------------------------------------------|
G--------5-----------5-----------8-----7-----5~---| x5
D--7-7-7---7-7-7-7-7---7-7-7-7-7---7-7---7-7------|
A-------------------------------------------------|
E-------------------------------------------------|

e------------------------------|
B------------------------------|
G--------5-----------5---------|
D--7-7-7---7-7-7-7-7---7-7-7!--|
A------------------------------|
E------------------------------|

Chorus:

Chorus Guitar 1:
e|-0-0-3-3-1-1-3-3-0-0-3-3-1-1-3-3-0-0-3-3-1-1-3-3-0-0-3-3-0-0-0-0-|
b|-1-1-3-3-1-1-3-3-1-1-3-3-1-1-3-3-1-1-3-3-1-1-3-3-1-1-3-3-1-1-1-1-|
g|-2-2-0-0-2-2-0-0-2-2-0-0-2-2-0-0-2-2-0-0-2-2-0-0-2-2-0-0-2-2-2-2-|
d|-2-2-0-0-3-3-0-0-2-2-0-0-2-2-0-0-2-2-0-0-3-3-0-0-2-2-0-0-3-3-3-3-|
a|-0-0-2-2-3-3-2-2-0-0-2-2-3-3-2-2-0-0-2-2-3-3-2-2-0-0-2-2-3-3-3-3-|
E|-----3-3-1-1-3-3-----3-3-1-1-3-3-----3-3-1-1-3-3-----3-3-1-1-1-1-|

Chorus Guitar 2:
e|-5---7-------7---5---7-------7---5---7-------7---5---7------|
b|-5---8---10--8---5---8---10--8---5---8---10--8---5---8---10-|
g|-5---7---9---7---5---7---9---7---5---7---9---7---5---7---9--|
d|-7---9---10--9---7---9---10--9---7---9---10--9---7---9---10-|
a|-0-------8-------0-------8-------0-------8-------0-------8--|
E|------------------------------------------------------------|
Strum in 2 groups of Triplets

Verse:
(Octave Pedal)
e-------------------------------------------------|
B-------------------------------------------------|
G--------5-----------5-----------8-----7-----5~---| x6
D--7-7-7---7-7-7-7-7---7-7-7-7-7---7-7---7-7------|
A-------------------------------------------------|
E-------------------------------------------------|

(I wish it didnt have..)
e---------------------------------------------|
B---------------------------------------------|
G-------5-----------5-----------5-----4-----2-|
D-4-4-4---4-4-4-4-4---4-4-3-3-3---3-3---3-3---| x2
A---------------------------------------------|
E---------------------------------------------|

e-------------------------------------------------|
B-------------------------------------------------|
G--------5-----------5-----------8-----7-----5~---|
D--7-7-7---7-7-7-7-7---7-7-7-7-7---7-7---7-7------|
A-------------------------------------------------|
E-------------------------------------------------|

e-----------------------------|
B--------------------5--------|
G--------5-------------7p5----|
D--7-7-7---7-7-7-7-7-------7!-|
A-----------------------------|
E-----------------------------|

Chorus:

Chorus Guitar 1:
e|-0-0-3-3-1-1-3-3-0-0-3-3-1-1-3-3-0-0-3-3-1-1-3-3-0-0-3-3-0-0-3-3-|
b|-1-1-3-3-1-1-3-3-1-1-3-3-1-1-3-3-1-1-3-3-1-1-3-3-1-1-3-3-1-1-3-3-|
g|-2-2-0-0-2-2-0-0-2-2-0-0-2-2-0-0-2-2-0-0-2-2-0-0-2-2-0-0-2-2-0-0-|
d|-2-2-0-0-3-3-0-0-2-2-0-0-2-2-0-0-2-2-0-0-3-3-0-0-2-2-0-0-3-3-0-0-|
a|-0-0-2-2-3-3-2-2-0-0-2-2-3-3-2-2-0-0-2-2-3-3-2-2-0-0-2-2-3-3-2-2-|
E|-----3-3-1-1-3-3-----3-3-1-1-3-3-----3-3-1-1-3-3-----3-3-1-1-3-3-|

Chorus Guitar 2:
e|-5---7-------7---5---7-------7---5---7-------7---5---7------|
b|-5---8---10--8---5---8---10--8---5---8---10--8---5---8---10-|
g|-5---7---9---7---5---7---9---7---5---7---9---7---5---7---9--|
d|-7---9---10--9---7---9---10--9---7---9---10--9---7---9---10-|
a|-0-------8-------0-------8-------0-------8-------0-------8--|
E|------------------------------------------------------------|
Strum in 2 groups of Triplets

Post Chorus:

e-7-7-7-7---------------7-7-7-7-----------------------------|
B-8-8-8-8--10-10-10-10--8-8-8-8--10-10-10-10-10-10-10-10-10-|
G-9-9-9-9--9--9--9--9---9-9-9-9--9--9--9--9--9--9--9--9--9--|
D-9-9-9-9--10-10-10-10--9-9-9-9--10-10-10-10-10-10-10-10-10-|
A-7-7-7-7--8--8--8--8---7-7-7-7--8--8--8--8--8--8--8--8--8--|
E-0-0-0-0---------------0-0-0-0-----------------------------|
(Strum in 2 groups of Triplets)

Pre solo: (octave)
Try not to Panic...
e-------------------|
B-------------------|
G-------------------|
D-------------------| x3
A-------------------|
E-5-5-5-5-5-5-5-5-3-|

e------------|
B------------|
G------------|
D------------|
A------------|
E-5-5-5-5-5~-|

Solo: (octave)
e|---------------------------------------------------------------|
b|---------------------------------------------------------------|
g|---------------------------------------------------------------|
d|-----------------------------------------10-12p10--------------|
a|---------------------------------8h10s12----------12p10s8------|
E|--8h1010101010-8h1010101010-8h10--------------------------10---|

e|---------------------------------------------------------------|
b|---------------------------------------------------------------|
g|-----------------------------------------------------10--------|
d|-----------------------------------------10-12p10-------12p10--|
a|---------------------------------8h10s12----------12-----------|
E|--8h1010101010-8h1010101010-8h10-------------------------------|

e|------------------------------------------------------------------|
b|------------------------------------------------------------------|
g|---------------------------------------------------------14p12----|
d|---------------------------------------------12-14p12----------14-|
a|------------------------------------10h12s14----------14----------|
E|--10h1212121212-10h1212121212-10h12-------------------------------|

e|----------------------------------------------------------------------|
b|----------------------------------------------------------------------|
g|---------------------------------------12h14p12-----------------------|
d|---------------------------------12h14----------14p12-----------------|
a|------------------------10h12s14----------------------14p12s10--------|
E|--10h1212121212-10h1212----------------------------------------12p10--|

e--------------------------------------|
B--------------------------------------|
G--------------------------------------|
D------------------------------5h6666--|
A-7h88888-7h88888-8h1010101010---------|
E--------------------------------------|

e--------------|
B--------------|
G--------------|
D-------5------|
A-7-7-7---7-7--|x2
E--------------|

Verse:
e-------------------------------------------------|
B-------------------------------------------------|
G--------5-----------5-----------8-----7-----5~---| x6
D--7-7-7---7-7-7-7-7---7-7-7-7-7---7-7---7-7------|
A-------------------------------------------------|
E-------------------------------------------------|

I wish it didnt have...
e---------------------------------------------|
B---------------------------------------------|
G-------5-----------5-----------5-----4-----2-|
D-4-4-4---4-4-4-4-4---4-4-3-3-3---3-3---3-3---| x2
A---------------------------------------------|
E---------------------------------------------|

e-------------------------------------------------|
B-------------------------------------------------|
G--------5-----------5-----------8-----7-----5~---|
D--7-7-7---7-7-7-7-7---7-7-7-7-7---7-7---7-7------|
A-------------------------------------------------|
E-------------------------------------------------|

SO HERES TO THE FUCKED UP DECISIONS WE'VE MADE!
e------------------------------|
B------------------------------|
G--------5-----------5---------|
D--7-7-7---7-7-7-7-7---7-7-7!--|
A------------------------------|
E------------------------------|


Chorus Guitar 1: (Is Acoustic guitar and in the background for the first 8 chords)
e|-0-0-3-3-1-1-3-3-0-0-3-3-1-1-3-3-0-0-3-3-1-1-3-3-0-0-3-3-0-0-3-3-|
b|-1-1-3-3-1-1-3-3-1-1-3-3-1-1-3-3-1-1-3-3-1-1-3-3-1-1-3-3-1-1-3-3-|
g|-2-2-0-0-2-2-0-0-2-2-0-0-2-2-0-0-2-2-0-0-2-2-0-0-2-2-0-0-2-2-0-0-|
d|-2-2-0-0-3-3-0-0-2-2-0-0-2-2-0-0-2-2-0-0-3-3-0-0-2-2-0-0-3-3-0-0-|
a|-0-0-2-2-3-3-2-2-0-0-2-2-3-3-2-2-0-0-2-2-3-3-2-2-0-0-2-2-3-3-2-2-|
E|-----3-3-1-1-3-3-----3-3-1-1-3-3-----3-3-1-1-3-3-----3-3-1-1-3-3-|

Chorus Guitar 2: Is the MAIN guitar for the first 8 Chords
e|-5---7-------7---5---7-------7---5---7-------7---5---7------|
b|-5---8---10--8---5---8---10--8---5---8---10--8---5---8---10-|
g|-5---7---9---7---5---7---9---7---5---7---9---7---5---7---9--|
d|-7---9---10--9---7---9---10--9---7---9---10--9---7---9---10-|
a|-0-------8-------0-------8-------0-------8-------0-------8--|
E|------------------------------------------------------------|
Strum in 2 groups of Triplets

Post Chorus:

e-7-7-7-7---------------7-7-7-7---------------|
B-8-8-8-8--10-10-10-10--8-8-8-8--10-10-10-10--|
G-9-9-9-9--9--9--9--9---9-9-9-9--9--9--9--9---|
D-9-9-9-9--10-10-10-10--9-9-9-9--10-10-10-10--|
A-7-7-7-7--8--8--8--8---7-7-7-7--8--8--8--8---|
E-0-0-0-0---------------0-0-0-0---------------|
Strum in 2 groups of Triplets

OUtro:
e-------------------------------------------------|
B-------------------------------------------------|
G--------5-----------5-----------8-----7-----5~---| x3
D--7-7-7---7-7-7-7-7---7-7-7-7-7---7-7---7-7------|
A-------------------------------------------------|
E-------------------------------------------------|

e-------------------------------------------------------|
B-------------------------------------------------------|
G--------5-----------5-----------8-----7-----5~hold-2---|
D--7-7-7---7-7-7-7-7---7-7-7-7-7---7-7---7-7--------2---|
A---------------------------------------------------0---|
E-------------------------------------------------------|

Tab by Arin Ozdemir
arinozdemir@gmail.com

12 -- SUM OF US

also missing! please pm if you find it!

credit goes completely to the aforemention tabbers.
comments
We did not receive enough feedback on this tab! Please rate:
print report bad tab
1 2 3 4 5
4 comments total. Showing first comments.
0 reply
Oldmonkeys wrote on March 13 2009, 11:33 pm

Thanks for giving credit where it is due, but the tabs for How Do We Know, and Make The Call are wrong / incomplete, so is my Raise the alarm tab..

also why submit it with out 21st or Sum Of Us?

0 reply
manowar313 wrote on April 24 2009, 05:44 pm

in addition to his comment i would like to see the bonus tracks as well
"Listen Up Suzie" and "Beware The Moon"

0 reply
ahigs wrote on April 25 2009, 10:56 pm

sure, ill see what i can sort out

I want to post or [tab]
guest
You may want to rate the tab now too:
select rating
Please do not post tabs as comments. Select "correction" instead!