Oops, an error
Loading. Please wait.

Everything I Ask For Tab

ver3
ver3

Whole song

More versions @911Tabs.com
16,935 views 3 this week
7 commentsread comments
1 2 3 4 5
accurate
x 6
Autoscroll
+/-
esc
set tempo
stop
Contributor
WARNING: You are trying to view
                                    content from Ultimate-Guitar.com
                                    in an unauthorized application,
                                    which is prohibited.

                                    Please use an official Ultimate
                                    Guitar Tabs application for iPhone,
                                    iPad or Android to access legitimate
                                    chords, guitar, bass, and drum tabs
                                    from Ultimate-Guitar.com database.

                                    Type "ultimate guitar tabs" in Apple
                                    App Store's or Android Market's
                                    search to find the application.
Artist: The Maine
Album: Can't Stop, Won't Stop
Song: Everything I Ask For

Okay, so I looked at some of the other tabs, and none of them really did get it quite
so I've spent the last hour staring at crappy cell phone videos of they're little
in the mall to figure this one out, and I'm writing this mere seconds after thinkin I 
got it right....

Needless to say (I hope), this is based on that version, and so may be a little bit
than the album version, still, this is as strict as I could I could boil it down to....

So enjoy!

*The Maine (not sure of the guitarist's name) plays this with a capo on the 5th fret,
I ditched it, so my tab will just be standard tuning with no capo. If you insist on using
capo, just adjust, its not that hard*

Intro

e|--------------------------------------------------------------|
B|--------------------------------------------------------------|
G|--9/11-11-11-11-11-6--6-6-6--9/11-11-11-11-11-7--7-7-7--------|
D|--9/11-11-11-11-11-7--7-7-7--9/11-11-11-11-11-7--7-7-7--------|
A|--7/9--9--9--9--9--7--7-7-7--7/9--9--9--9--9--5--5-5-5--------|
E|-------------------5--5-5-5-----------------------------------|

e|--------------------------------------------------------------|
B|--------------------------------------------------------------|
G|--9/11-11-11-11-11-6--6-6-6--9/11-11-9-9-9-7~~~~--------------|
D|--9/11-11-11-11-11-7--7-7-7--9/11-11-9-9-9-7~~~~--------------|
A|--7/9--9--9--9--9--7--7-7-7--7/9--9--7-7-7-5~~~~--------------|
E|-------------------5--5-5-5-----------------------------------|

Verse

She takes her time with the little things
    Love notes reminding me
e|-----------------------------------------------------------|
B|-----------------------------------------------------------|
G|--9/11-11-11-11-11-6--6-6-6--9/11-11-11-11-11-7--7-7-7-----|
D|--9/11-11-11-11-11-7--7-7-7--9/11-11-11-11-11-7--7-7-7-----|
A|--7/9--9--9--9--9--7--7-7-7--7/9--9--9--9--9--5--5-5-5-----|
E|-------------------5--5-5-5--------------------------------|


She wears red when she's feeling hot
    I have her but that's all I got
e|-----------------------------------------------------------|
B|-----------------------------------------------------------|
G|--9/11-11-11-11-11-6--6-6-6--9/11-11-11-11-11-7--7-7-7-----|
D|--9/11-11-11-11-11-7--7-7-7--9/11-11-11-11-11-7--7-7-7-----|
A|--7/9--9--9--9--9--7--7-7-7--7/9--9--9--9--9--5--5-5-5-----|
E|-------------------5--5-5-5--------------------------------|

She looks best without her clothes
    I know it's wrong but that's the way it goes

e|-----------------------------------------------------------|
B|-----------------------------------------------------------|
G|--9/11-11-11-11-11-6--6-6-6--9/11-11-11-11-11-7--7-7-7-----|
D|--9/11-11-11-11-11-7--7-7-7--9/11-11-11-11-11-7--7-7-7-----|
A|--7/9--9--9--9--9--7--7-7-7--7/9--9--9--9--9--5--5-5-5-----|
E|-------------------5--5-5-5--------------------------------|

I don't know what she sees in me
    But I'm happy that's she happy
e|-----------------------------------------------------------|
B|-----------------------------------------------------------|
G|--9/11-11-11-11-11-6--6-6-6--9/11-11-11-11-11-7--7-7-7-----|
D|--9/11-11-11-11-11-7--7-7-7--9/11-11-11-11-11-7--7-7-7-----|
A|--7/9--9--9--9--9--7--7-7-7--7/9--9--9--9--9--5--5-5-5-----|
E|-------------------5--5-5-5--------------------------------|


Pre-Chorus

Now that shes with me
    And I'm freakin' out cause I'm just so lucky
e|--(---------------------)----------------------------------|
B|--(---------------------)----------------------------------|
G|--(-9-----/11----\7-----)-----9-----/11----\7~-------------|
D|--(-9-x12-/11-x4-\7-x16-)-x2--9-x12-/11-x4-\7~-------------|
A|--(-7-----/9-----\5-----)-----7-----/9-----\5~-------------|
E|--(---------------------)----------------------------------|
            ^      ^                  ^      ^
            |      |                  |      |
*He's actually sliding between all of these chords, but it's more pronounced where I've
them*

Chorus

Oh she makes me feel like shit (It's always somethin')
e|-----------------------------------------------------------|
B|-----------------------------------------------------------|
G|--6-6--X-X-X-X-9-9--X-X-X-X-X--9-9-X-X-9-9--X-X-X-X--------|
D|--7-7--X-X-X-X-9-9--X-X-X-X-X--9-9-X-X-9-9--X-X-X-X--------|
A|--7-7--X-X-X-X-7-7--X-X-X-X-X--7-7-X-X-7-7--X-X-X-X--------|
E|--5-5--X-X-X-X---------------------------------------------|
                              ^
*Pay very special attention to this muted note, if your sense of rhythm is anything like
you'll probably skip this note, but it is a full QUARTER note, so make sure not to skip
or you'll definitely notice*

But I can't get over it, because she's....
e|-----------------------------------------------------------|
B|-----------------------------------------------------------|
G|--6-6--X-X-X-X-9-9--X-X-X-X-X--9-9-X-X-9-9--X-X-X-X--------|
D|--7-7--X-X-X-X-9-9--X-X-X-X-X--9-9-X-X-9-9--X-X-X-X--------|
A|--7-7--X-X-X-X-7-7--X-X-X-X-X--7-7-X-X-7-7--X-X-X-X--------|
E|--5-5--X-X-X-X---------------------------------------------|

Everything I ask for, everything I ask for, and just a little bit more
    Everything I ask for, everything I ask for, and so much more
e|-----------------------------------------------------------|
B|-----------------------------------------------------------|
G|--11----13----9-----11----13----9----9~~~~~----------------|
D|--11-x8-13-x8-9-x16-11-x8-13-x8-9-x8-9~~~~~----------------|
A|--9-----11----7-----9-----11----7----7~~~~~----------------|
E|-----------------------------------------------------------|
       ^^^
*Right in this transition, I can see his hands come completely off the fretboard, but I
tell if he's playing the open notes there or not, so do what you want*

Verse 2

She loves music but she hates my band
    She loves Prince, she's his biggest fan
e|-----------------------------------------------------------|
B|-----------------------------------------------------------|
G|--9/11-11-11-11-11-6--6-6-6--9/11-11-11-11-11-7--7-7-7-----|
D|--9/11-11-11-11-11-7--7-7-7--9/11-11-11-11-11-7--7-7-7-----|
A|--7/9--9--9--9--9--7--7-7-7--7/9--9--9--9--9--5--5-5-5-----|
E|-------------------5--5-5-5--------------------------------|

She's not big on holding hands
    But that's alright, cause I've still got her
e|-----------------------------------------------------------|
B|-----------------------------------------------------------|
G|--9/11-11-11-11-11-6--6-6-6--9/11-11-11-11-11-7--7-7-7-----|
D|--9/11-11-11-11-11-7--7-7-7--9/11-11-11-11-11-7--7-7-7-----|
A|--7/9--9--9--9--9--7--7-7-7--7/9--9--9--9--9--5--5-5-5-----|
E|-------------------5--5-5-5--------------------------------|

She keeps up on current affairs
    Prada is what she wears!
e|-----------------------------------------------------------|
B|-----------------------------------------------------------|
G|--9/11-11-11-11-11-6--6-6-6--9x------------------7-7-7-----|
D|--9/11-11-11-11-11-7--7-7-7--9x------------------7-7-7-----|
A|--7/9--9--9--9--9--7--7-7-7--7x------------------5-5-5-----|
E|-------------------5--5-5-5--------------------------------|
                                ^
*This isn't a muted note, it's just how I show to not let the note ring*

I don't know what she sees in me
    But I'm happy that she's happy....
e|-----------------------------------------------------------|
B|-----------------------------------------------------------|
G|--9/11-11-11-11-11-6--6-6-6--9/11-11-11-11-11-7--7-7-7-----|
D|--9/11-11-11-11-11-7--7-7-7--9/11-11-11-11-11-7--7-7-7-----|
A|--7/9--9--9--9--9--7--7-7-7--7/9--9--9--9--9--5--5-5-5-----|
E|-------------------5--5-5-5--------------------------------|

Pre-Chorus

Now, that she's with me
    And I'm freakin out, cause I'm just so lucky
e|--(---------------------)----------------------------------|
B|--(---------------------)----------------------------------|
G|--(-9-----/11----\7-----)-----9-----/11----\7~-------------|
D|--(-9-x12-/11-x4-\7-x16-)-x2--9-x12-/11-x4-\7~-------------|
A|--(-7-----/9-----\5-----)-----7-----/9-----\5~-------------|
E|--(---------------------)----------------------------------|

Chorus

Oh she makes me feel like shit (It's always somethin')
e|-----------------------------------------------------------|
B|-----------------------------------------------------------|
G|--6-6--X-X-X-X-9-9--X-X-X-X-X--9-9-X-X-9-9--X-X-X-X--------|
D|--7-7--X-X-X-X-9-9--X-X-X-X-X--9-9-X-X-9-9--X-X-X-X--------|
A|--7-7--X-X-X-X-7-7--X-X-X-X-X--7-7-X-X-7-7--X-X-X-X--------|
E|--5-5--X-X-X-X---------------------------------------------|

But I can't get over it, because she's....
e|-----------------------------------------------------------|
B|-----------------------------------------------------------|
G|--6-6--X-X-X-X-9-9--X-X-X-X-X--9-9-X-X-9-9--X-X-X-X--------|
D|--7-7--X-X-X-X-9-9--X-X-X-X-X--9-9-X-X-9-9--X-X-X-X--------|
A|--7-7--X-X-X-X-7-7--X-X-X-X-X--7-7-X-X-7-7--X-X-X-X--------|
E|--5-5--X-X-X-X---------------------------------------------|

Everything I ask for, everything I ask for, and just a little bit more
    Everything I ask for, everything I ask for, and so much more
e|-----------------------------------------------------------|
B|-----------------------------------------------------------|
G|--11----13----9-----11----13----9----9~~~~~----------------|
D|--11-x8-13-x8-9-x16-11-x8-13-x8-9-x8-9~~~~~----------------|
A|--9-----11----7-----9-----11----7----7~~~~~----------------|
E|-----------------------------------------------------------|

Bridge
Fist fights turn into sex
    I wonder what comes next
e|-----------------------------------------------------------|
B|-----------------------------------------------------------|
G|--9--9-9-9-9-11--11-11-X--7--7-7-7-7-6--6-6-X--------------|
D|--9--9-9-9-9-11--11-11-X--7--7-7-7-7-7--7-7-X--------------|
A|--7--7-7-7-7-9---9--9--X--5--5-5-5-5-7--7-7-X--------------|
E|-------------------------------------5--5-5-X--------------|


She loves to always keep me guessing
e|-----------------------------------------------------------|
B|-----------------------------------------------------------|
G|--9--9-9-9-9-11--11-11-X--7--7-7-7-7-6--6-6-X--------------|
D|--9--9-9-9-9-11--11-11-X--7--7-7-7-7-7--7-7-X--------------|
A|--7--7-7-7-7-9---9--9--X--5--5-5-5-5-7--7-7-X--------------|
E|-------------------------------------5--5-5-X--------------|

And she (SHE) won't (WON'T) give it up
e|-----------------------------------------------------------|
B|-----------------------------------------------------------|
G|--9--9-9-9-9-11--11-11-X--7--7-7-7-7-6--6-6-X--------------|
D|--9--9-9-9-9-11--11-11-X--7--7-7-7-7-7--7-7-X--------------|
A|--7--7-7-7-7-9---9--9--X--5--5-5-5-5-7--7-7-X--------------|
E|-------------------------------------5--5-5-X--------------|

And we (WE) both (BOTH) know it's becasue....
e|-----------------------------------------------------------|
B|-----------------------------------------------------------|
G|--9--9-9-9-9-11--11-11-X--7-----9-----9~~~~----------------|
D|--9--9-9-9-9-11--11-11-X--7-x16-9-x14-9~~~~----------------|
A|--7--7-7-7-7-9---9--9--X--5-----7-----7~~~~----------------|

Chorus

Oh she makes me feel like shit (It's always somethin')
e|-----------------------------------------------------------|
B|-----------------------------------------------------------|
G|--6-6--X-X-X-X-9-9--X-X-X-X-X--9-9-X-X-9-9--X-X-X-X--------|
D|--7-7--X-X-X-X-9-9--X-X-X-X-X--9-9-X-X-9-9--X-X-X-X--------|
A|--7-7--X-X-X-X-7-7--X-X-X-X-X--7-7-X-X-7-7--X-X-X-X--------|
E|--5-5--X-X-X-X---------------------------------------------|

But I can't get over it, because she's....
e|-----------------------------------------------------------|
B|-----------------------------------------------------------|
G|-------------------------------9-9-X-X-9-9--X-X-X-X--------|
D|---(Remember that it's)--------9-9-X-X-9-9--X-X-X-X--------|
A|------(Silent here)------------7-7-X-X-7-7--X-X-X-X--------|
E|-----------------------------------------------------------|

Everything I ask for, everything I ask for, and just a little bit more
    Everything I ask for, everything I ask for, and just a little bit more
        Everything I ask for, everything I ask for, and so much more
e|-----------------------------------------------------------|
B|-----------------------------------------------------------|
G|-(-11----13----9-----)-----11-----13----9----9~~~~---------|
D|-(-11-x8-13-x8-9-x16-)-x2--11-x8--13-x8-9-x8-9~~~~---------|
A|-(-9-----11----7-----)-----9------11----7----7~~~~---------|
E|-----------------------------------------------------------|

Well there it is, have fun with it, and be sure to listen to the song to catch the
rhythm in the chorus (it really is a bit tricky) but after a few runs, you'll get it down.

As a side note, while tabbing this, I noticed the Intro/Verse/Bridge all have the same
as a Fall Out Boy song, Yule Shoot Your Eye Out

I thought it was funny ;p
comments
print report bad tab
7 comments total. Showing first comments.
0 reply
wtflolbbq wrote on January 22 2009, 07:38 pm

not bad... but not complete. sounds pretty good, missed guitar 2, and err, your counting skills is pretty bad.

Everything I ask for, everything I ask for, and just a little bit more
Everything I ask for, everything I ask for, and so much more
e|-----------------------------------------------------------|
B|------------------------------------------------------------|
G|--11-11--13-13--9-9--11-11--13-13--9--9~~~~~----------------|
D|--11-11--13-13--9-9--11-11--13-13--9--9~~~~~----------------|
A|--9--9---11-11--7-9--9--9---11-11--7--7~~~~~----------------|
E|------------------------------------------------------------|
ahh that feels better

0 reply
wtflolbbq wrote on January 22 2009, 07:39 pm

djskalcn my bad!!! that

should be

7

0 reply
wtflolbbq wrote on January 22 2009, 07:39 pm

._.'' err ok... that 9 9 9 should be 7 9 9

I want to post or [tab]
guest
You may want to rate the tab now too:
select rating
Please do not post tabs as comments. Select "correction" instead!