Oops, an error
Loading. Please wait.

Mr Winter Acoustic Tab

10,084 views 3 this week
3 commentsread comments
1 2 3 4 5
excellent!
x 4
Autoscroll
+/-
esc
set tempo
stop
Contributor
Hey! There's an official Ultimate Guitar app which is ideal
for learning songs when you're away from computer. Get the app
WARNING: You are trying to view
                                    content from Ultimate-Guitar.com
                                    in an unauthorized application,
                                    which is prohibited.

                                    Please use an official Ultimate
                                    Guitar Tabs application for iPhone,
                                    iPad or Android to access legitimate
                                    chords, guitar, bass, and drum tabs
                                    from Ultimate-Guitar.com database.

                                    Type "ultimate guitar tabs" in Apple
                                    App Store's or Android Market's
                                    search to find the application.
Hey, first tab.
View this video for strumming and transition help. Just listen to him play. Some muted 
he will play throughout the song, so just play whatever sounds best.

http://www.youtube.com/watch?v=_jSPyygAmO8

Standard Tuning


Intro


e|-x--x--x--x--x--x--x--|
b|-x--x--x--x--x--x--x--|
g|-9--8--6--8--6--4--2--|
d|-9--9--7--9--6--4--2--|
a|-7--9--7--9--4--2--x--|
e|-x--7--5--7--x--x--x--|  x2


Verse


   E  B5 Asus4
e|-x--x--x-----x--x--x--x--|
b|-x--x--x-----x--x--x--x--|
g|-1--4--2-----4--6--4--2--|
d|-2--4--2-----4--6--4--2--|
a|-2--2--x-----2--4--2--x--|
e|-x--x--x-----x--x--x--x--|

When you left, she was a wreck
Cuz she said, you left a mess
But you said that you'd be back home
Didn't wanna see her all alone

And you bet she took your word
Cuz she said you'll never learn
All the things that you put her through
Don't know why she's coming back to you


Pre-Chorus

e|--x--x--x--x--x--x--|
b|--x--x--x--x--x--x--|
g|--9--8--6--6--4--2--|
d|--9--9--7--6--4--2--|
a|--7--9--7--4--2--x--|
e|--x--7--5--x--x--x--|


But she says she's alone
But she knows she's in love


Chorus

   E  B5 Asus4
e|-x--x--x-----x--x--x--x--|
b|-x--x--x-----x--x--x--x--|
g|-1--4--2-----4--6--4--2--|
d|-2--4--2-----4--6--4--2--|
a|-2--2--x-----2--4--2--x--|
e|-x--x--x-----x--x--x--x--|

Mr Winter, did you miss her?
For the 3 months you were gone
Had her waiting all night long

Mr Winter, don't forget her
She'll be waiting all alone
Please just say you'll come back


(repeat Intro)


Verse

e|--x--x--x--x--x--x--|
b|--x--x--x--x--x--x--|
g|--9--8--6--6--4--2--|
d|--9--9--7--6--4--2--|
a|--7--9--7--4--2--x--|
e|--x--7--5--x--x--x--|  x2

And he's cold, but he keeps you warm
Cuz his love still burns for you
And you don't know what's in store
But you both know what is true


Pre-Chorus

e|--x--x--x--x--x--x--x--|
b|--x--x--x--x--x--x--x--|
g|--9--8--6--8--6--4--2--|
d|--9--9--7--9--6--4--2--|
a|--7--9--7--9--4--2--x--|
e|--x--7--5--7--x--x--x--|


But she says she's alone
But she knows she's in love


Chorus

   E  B5 Asus4
e|-x--x--x-----x--x--x--x--|
b|-x--x--x-----x--x--x--x--|
g|-1--4--2-----4--6--4--2--|
d|-2--4--2-----4--6--4--2--|
a|-2--2--x-----2--4--2--x--|
e|-x--x--x-----x--x--x--x--|

Mr Winter, did you miss her?
For the 3 months you were gone
Had her waiting all night long

Mr Winter, don't forget her
She'll be waiting all alone
Please just say you'll come back

x2


Bridge


e|--x--x--x--x--x--x--x--x--x--x--|
b|--x--x--x--x--x--x--x--x--x--x--|
g|--1--2--1--4--4--1--2--1--4--5--|
d|--2--2--2--4--4--2--2--2--4--5--|
a|--2--x--2--2--2--2--x--2--2--3--|
e|--0--x--0--x--x--0--x--0--x--x--|

then

e|--x--x--x--x--x--x--x--x--x--|
b|--x--x--x--x--x--x--x--x--x--|
g|--6--1--4--1--2--1--4--5--6--|
d|--6--2--4--2--2--2--4--5--6--|
a|--4--2--2--2--x--2--2--3--4--|
e|--x--0--x--0--x--0--x--x--x--|

W-|hoa-oh-oh, Whoa-oh-oh, Whoa-oh-oh-oh
W-|hoa-oh-oh, Whoa-oh-oh, Whoa-oh-oh-oh


Verse/Pre-Chorus

e|--x--x--x--x--x--x--x--x--x-~
b|--x--x--x--x--x--x--x--x--x-~
g|--6--1--4--1--2--1--4--5--6-~  repeat
d|--6--2--4--2--2--2--4--5--6-~
a|--4--2--2--2--x--2--2--3--4-~
e|--x--0--x--0--x--0--x--x--x-~

But you said that you'd be back home
Didn't wanna see her all alone

All the things that you put her through
Don't know why she's coming back to you


Chorus


   E  B5 Asus4
e|-x--x--x-----x--x--x--x--|
b|-x--x--x-----x--x--x--x--|
g|-1--4--2-----4--6--4--2--|
d|-2--4--2-----4--6--4--2--|
a|-2--2--x-----2--4--2--x--|
e|-x--x--x-----x--x--x--x--|

Mr Winter, did you miss her?
For the 3 months you were gone
Had her waiting all night long

Mr Winter, don't forget her
She'll be waiting all alone
Please just say you'll come back -

x2


End


   E
e|-x--|
b|-x--|
g|-1--|
d|-2--|
a|-2--|
e|-0--|

- home


Thanks, hope this helps.
comments
print report bad tab
3 comments total.
-1 reply
teresay94 wrote on February 19 2009, 06:19 pm

great tab! the only thing i'd have to say is in the bridge when john starts singing again, the second cord is 002200 and the 001220 before the 004420 and 005530 doesn't have to be there.
so... it'd be:
e|--x--x--x--x--x--x--x--x--|
b|--x--x--x--x--x--x--x--x--|
g|--6--0--4--1--2--4--5--6--|
d|--6--2--4--2--2--4--5--6--|
a|--4--2--2--2--x--2--3--4--|
e|--x--0--x--0--x--x--x--x--|

other than that this tab is really good! :)

0 reply
cuhhzz wrote on May 26 2009, 12:18 pm

i love you

0 reply
Mega5657 wrote on October 2 2011, 07:55 pm

After watching the video it sounds like the high E and B string are open on most of the chords. Great tab though pinned the right chords down.

I want to post or [tab]
guest
You may want to rate the tab now too:
select rating
Please do not post tabs as comments. Select "correction" instead!