Oops, an error
Loading. Please wait.

Troubled Waters Tab

323 views 1 this week
no commentswrite comment
1 2 3 4 5
please rate
add to favorites launch autoscroll
font size
0
reset
Autoscroll
+/-
esc
set tempo
stop
Contributor
Difficulty
advanced
WARNING: You are trying to view
                                    content from Ultimate-Guitar.com
                                    in an unauthorized application,
                                    which is prohibited.

                                    Please use an official Ultimate
                                    Guitar Tabs application for iPhone,
                                    iPad or Android to access legitimate
                                    chords, guitar, bass, and drum tabs
                                    from Ultimate-Guitar.com database.

                                    Type "ultimate guitar tabs" in Apple
                                    App Store's or Android Market's
                                    search to find the application.
THE MONGOLOIDS  TROUBLED WATERS

http://www.facebook.com/MongoloidsNJ

    e|-------------------------------------------------|
    b|-------------------------------------------------|
GTR G|-------------7-7-7-7-7-7-------------------------|
 1  D|-3-3-3-3-3-3-7-7-7-7-7-7-2-2-2-2-2-2-2-2-2-2-2-2-|
    A|-3-3-3-3-3-3-5-5-5-5-5-5-2-2-2-2-2-2-2-2-2-2-2-2-|
    E|-1-1-1-1-1-1-------------0-0-0-0-0-0-0-0-0-0-0-0-|

    e|--------------------------------------------------|
    b|--------------------------------------------------|
GTR G|-------------7-7-7-7-7-7-/9-9-9-9-9-9-9-9-9-9-9-9-|
 1  D|-3-3-3-3-3-3-7-7-7-7-7-7-/9-9-9-9-9-9-9-9-9-9-9-9-|
    A|-3-3-3-3-3-3-5-5-5-5-5-5-/7-7-7-7-7-7-7-7-7-7-7-7-|
    E|-1-1-1-1-1-1--------------------------------------|

    e|-------------------------------------------------|
    b|-------------------------------------------------|
GTR G|-------------7-7-7-7-7-7-------------------------|
1+2 D|-3-3-3-3-3-3-7-7-7-7-7-7-2-2-2-2-2-2-2-2-2-2-2-2-| x4
    A|-3-3-3-3-3-3-5-5-5-5-5-5-2-2-2-2-2-2-2-2-2-2-2-2-|
    E|-1-1-1-1-1-1-------------0-0-0-0-0-0-0-0-0-0-0-0-|

    e|-----------------------------------------------------|
    b|-----------------------------------------------------|
GTR G|-----------------------------------------------------|
 1  D|-2---------------------------3-----------------------|
    A|-2-----------------------2-2-3-------------------3-3-|
    E|-0-----------------------0-0-1-------------------1-1-|
                               P M                     P M          

    e|-----------------------------------------------------|
    b|-----------------------------------------------------|
GTR G|-----------------------7h9p7-10-10-10-9p7-9^(10)-9p7-|
 2  D|----------------7h9h10-------------------------------|
    A|-7~------7h8h10--------------------------------------|
    E|-----------------------------------------------------|

    e|------------------------------------------------------------| 
    b|------------------------------------------------------------|
GTR G|------------------------------------------------------------|
 1  D|-2---------------------------5------------------------------|
    A|-2-----------------------2-2-5------------------------------|
    E|-0-----------------------0-0-3------------------------------|
                               P M

    e|----------------------------------------------------------|
    b|-----------------------------12^(13)---12^(13)------------|
GTR G|-9^(10)---12-12^(13)-14^(15)-15^(17)---15^(17)--15p14-----|
 2  D|------------------------------------------------------12/-|
    A|----------------------------------------------------------|
    E|----------------------------------------------------------|
   
    e|-----------------------------------------------------|
    b|-----------------------------------------------------|
GTR G|-----------------------------------------------------|
 1  D|-2---------------------------3-----------------------|
    A|-2-----------------------2-2-3-------------------3-3-|
    E|-0-----------------------0-0-1-------------------1-1-|
                               P M                     P M 

    e|--------------------------------------------------------------------|
    b|--------------------------------------------------------------------|
GTR G|--------------------------------------------------------------14----|
 2  D|-14-14-14-14-12-14-14-14-14-12-12--14-14-14-14-14-14-14-14-15----15-|
    A|--------------------------------------------------------------------|
    E|--------------------------------------------------------------------|

    e|-----------------------------------------------------------------| 
    b|-----------------------------------------------------------------|
GTR G|-----------------------------------------------------------------|
 1  D|-2------------------------5--------------------------------------|
    A|-2--------------------2-2-5--------------------------------------|
    E|-0--------------------0-0-3--------------------------------------|
                            P M

    e|-----------------------------------------------------------------|
    b|-----------------------------------------------------------------|
GTR G|--------------------------------------------14----------------17-|
 2  D|-141414141414141414-12h14-12h14h15-14h15h17----14h15-15h17h19----|
    A|-----------------------------------------------------------------|
    E|-----------------------------------------------------------------|

    e|-------------------------------------------------|
    b|-------------------------------------------------|
GTR G|-------------------------------------------------|
 1  D|-2-----2-----2-----2-----3-----3-----3-----3-----|
    A|-2-2-2-2-2-2-2-2-2-2-2-2-3-3-3-3-3-3-3-3-3-3-3-3-|
    E|-0-0-0-0-0-0-0-0-0-0-0-0-1-1-1-1-1-1-1-1-1-1-1-1-|
         P M   P M   P M   P M   P M   P M   P M   P M

    e|-----------------------------------------------------|
    b|-12^(13)---12^(13)-12^(13)-13^(14)---13^(14)-13^(14)-|
GTR G|-15^(17)---15^(17)-15^(17)-16^(18)---16^(18)-16^(18)-|
 2  D|-----------------------------------------------------|
    A|-----------------------------------------------------|
    E|-----------------------------------------------------|

    e|-------------------------------------------------|
    b|-------------------------------------------------|
GTR G|-------------------------------------------------|
 1  D|-2-----2-----2-----2-----5-----5-----5-----5-----|
    A|-2-2-2-2-2-2-2-2-2-2-2-2-5-5-5-5-5-5-5-5-5-5-5-5-|
    E|-0-0-0-0-0-0-0-0-0-0-0-0-3-3-3-3-3-3-3-3-3-3-3-3-|
         P M   P M   P M   P M   P M   P M   P M   P M

    e|--------------------------------------------------------------|
    b|-12^(13)---12^(13)-12^(13)------------------------------------|
GTR G|-15^(17)---15^(17)-15^(17)--------------------9-10-12/14^(15)-|
 2  D|-------------------------------7--------791012----------------|
    A|---------------------------7810--1087810----------------------|
    E|--------------------------------------------------------------|
                                 PMP M P MPMPMPMPMPMP M  

    e|-------------------------------------------------|
    b|-------------------------------------------------|
GTR G|-------------------------------------------------|
 1  D|-2-----2-----2-----2-----3-----3-----3-----3-----|
    A|-2-2-2-2-2-2-2-2-2-2-2-2-3-3-3-3-3-3-3-3-3-3-3-3-|
    E|-0-0-0-0-0-0-0-0-0-0-0-0-1-1-1-1-1-1-1-1-1-1-1-1-|
         P M   P M   P M   P M   P M   P M   P M   P M

    e|-----------------------------------------|
    b|-----------------------------------------|
GTR G|-13-----13-13-13-13-13---14-----14-16-14-|
 2  D|-----------------------------------------|
    A|-----------------------------------------|
    E|-----------------------------------------|

    e|-------------------------------------------------|
    b|-------------------------------------------------|
GTR G|-------------------------------------------------|
 1  D|-2-----2-----2-----2-----5-----5-----5-----5-----|
    A|-2-2-2-2-2-2-2-2-2-2-2-2-5-5-5-5-5-5-5-5-5-5-5-5-|
    E|-0-0-0-0-0-0-0-0-0-0-0-0-3-3-3-3-3-3-3-3-3-3-3-3-|
         P M   P M   P M   P M   P M   P M   P M   P M

    e|-------14h15-17h18p17p15----17---------------------------------------|
    b|-15h17-------------------17----18-17---------------------------------|
GTR G|-------------------------------------19-17-16-17-16-14-12------------|
 2  D|----------------------------------------------------------15-14-14PH-|
    A|---------------------------------------------------------------------|
    E|---------------------------------------------------------------------|

PH = pinched harmonic

    e|----------------|
    b|----------------|
GTR G|----------------|
 1  D|-2--2--2-----2--| x2
    A|-2--2--2--2--2--|
    E|-0--0--0--0--0--|
               PM

    e|----------------|
    b|----------------|
GTR G|----------------|
1+2 D|-2--2--2-----2--| x4
    A|-2--2--2--2--2--|
    E|-0--0--0--0--0--|
               PM

    e|----------------|
    b|----------------|
GTR G|----------------|
 1  D|-2--2--2-----2--| 
    A|-2--2--2--2--2--|
    E|-0--0--0--0--0--|
               PM                 

    e|-----------------------------------------|
    b|-16^(17)-16^(17)-16^(17)-16^(17)-16^(17)-|
GTR G|-19^(21)-19^(21)-19^(21)-19^(21)-18^(20)-|
 2  D|-----------------------------------------|
    A|-----------------------------------------|
    E|-----------------------------------------|

    e|-----------------|
    b|-----------------|
GTR G|-----------------|
 1  D|--2--2--2-----3--| 
    A|--2--2--2--2--3--|
    E|--0--0--0--0--1--|
                PM                

    e|----------------------------------------|
    b|-14^(15)-14^(15)-14^(15)----14h15p14----|
GTR G|-17^(19)-17^(19)-17^(19)-17----------16-|
 2  D|----------------------------------------|
    A|----------------------------------------|
    E|----------------------------------------|

    e|----------------|
    b|----------------|
GTR G|----------------|
 1  D|-2--2--2-----2--| 
    A|-2--2--2--2--2--|
    E|-0--0--0--0--0--|
               PM   

    e|-------------------------------------|
    b|-10^(11)-10^(11)-10^(11)-------------|
GTR G|-13^(15)-13^(15)-13^(15)-13h14p13----|
 2  D|----------------------------------15-|
    A|-------------------------------------|
    E|-------------------------------------|

    e|-----------------|
    b|-----------------|
GTR G|-----------------|
 1  D|--2--2--2-----3--| 
    A|--2--2--2--2--3--|
    E|--0--0--0--0--1--|
                PM       

    e|-----------------|
    b|-----------------|
GTR G|-----------------|
 2  D|-12--14--12--14--|
    A|-----------------|
    E|-----------------|

    e|---------------------------|
    b|---------------------------|
GTR G|---------------------------|
1+2 D|-2------------3------------| x2
    A|-2--------6-5-3--------5-6-|
    E|-0--------4-3-1--------3-4-|
                P M          P M

    e|---------------------------|
    b|---------------------------|
GTR G|---------------------------|
 1  D|-2------------3------------| 
    A|-2--------6-5-3--------5-6-|
    E|-0--------4-3-1--------3-4-|
                P M          P M

    e|---------------------------|
    b|---------------------------|
GTR G|---------------------------|
 2  D|---------------------------|
    A|---/7-----6-5-----/8---5-6-|
    E|----------4-3----------3-4-|
                P M          P M

    e|---------------------------------|
    b|---------------------------------|
GTR G|---------------------------------|
 1  D|-2-2-2-2-------------------------| x2
    A|-2-2-2-2-2-2-2-2-2-2-2-2-2-2-2-2-|
    E|-0-0-0-0-0-0-0-0-0-0-0-0-0-0-0-0-|
               P M P M P M P M P M P M

    e|---------------------------------|
    b|---------------------------------|
GTR G|---------------------------------|
 2  D|-2-2-2-2-------------------------| x2
    A|-2-2-2-2-------------------------|
    E|-0-0-0-0-------------------------|
               
    e|---------------------------------|
    b|---------------------------------|
GTR G|---------------------------------|
 1  D|-3-3-3-3-------------------------|
    A|-3-3-3-3-3-3-3-3-3-3-3-3-3-3-3-3-|
    E|-1-1-1-1-1-1-1-1-1-1-1-1-1-1-1-1-|
               P M P M P M P M P M P M

    e|---------------------------------|
    b|---------------------------------|
GTR G|---------------------------------|
 2  D|-3-3-3-3-------------------------|
    A|-3-3-3-3-------------------------|
    E|-1-1-1-1-------------------------|

    e|---------------------------------|
    b|---------------------------------|
GTR G|---------------------------------|
1+2 D|-2-2-2-2-------------------------| 
    A|-2-2-2-2-------------------------|
    E|-0-0-0-0-------------------------|

    e|---------------------------------|
    b|---------------------------------|
GTR G|---------------------------------|
 1  D|-2-2-2-2-------------------------| x2
    A|-2-2-2-2-2-2-2-2-2-2-2-2-2-2-2-2-|
    E|-0-0-0-0-0-0-0-0-0-0-0-0-0-0-0-0-|
               P M P M P M P M P M P M

    e|---------------------------------|
    b|---------------------------------|
GTR G|---------------------------------|
 2  D|-2-2-2-2-------------------------| x2
    A|-2-2-2-2-------------------------|
    E|-0-0-0-0-------------------------|
               
    e|---------------------------------|
    b|---------------------------------|
GTR G|---------------------------------|
 1  D|-3-3-3-3-------------------------|
    A|-3-3-3-3-3-3-3-3-3-3-3-3-3-3-3-3-|
    E|-1-1-1-1-1-1-1-1-1-1-1-1-1-1-1-1-|
               P M P M P M P M P M P M

    e|---------------------------------|
    b|---------------------------------|
GTR G|---------------------------------|
 2  D|-3-3-3-3-------------------------|
    A|-3-3-3-3-------------------------|
    E|-1-1-1-1-------------------------|

    e|---------------------------------|
    b|---------------------------------|
GTR G|---------------------------------|
 1  D|-2-2-2-2-------------------------| 
    A|-2-2-2-2-2-2-2-2-2-2-2-2-2-2-2-2-|
    E|-0-0-0-0-0-0-0-0-0-0-0-0-0-0-0-0-|
               P M P M P M P M P M P M

    e|---------------------------------|
    b|---------------------------------|
GTR G|---------------------------------|
 2  D|-2-2-2-2-------------------------| 
    A|-2-2-2-2-------------------------|
    E|-0-0-0-0-------------------------|
              
    e|---------------------0---------------|
    b|---------------------0---------------|
GTR G|-7------77-----------0---------------|
1+2 D|-7------77-3------3--2---------------|
    A|-5------55-3------3--2---------------|
    E|-----------1------1--0---------------|

comments
We did not receive enough feedback on this tab! Please rate:
print report bad tab
1 2 3 4 5
I want to post or [tab]
guest
You may want to rate the tab now too:
select rating
Please do not post tabs as comments. Select "correction" instead!